Artists by letter: A B C D E F G H I J K L M N O P Q R S T U V W X Y Z 0-9

 
Faster Car
[Intro]
e|---------------------------------------------------------------------------|
B|-----2-----------4-----------5------------5--------------------------------|
G|-----2-----------4-----------6------------6--------------------------------|
D|---------------------------------------------------------------------------|
A|--0-----------2-----------4------------4-----------------------------------|
E|---------------------------------------------------------------------------|

[Verse]
(repeat throughout verse and prechorus)
e|-------------------------------------------------- *last note in verse: ---------4------------|
B|-----2-----------4-----------5------------5-------      and prechorus   ----------------------|
G|-----2-----------4-----------6------------6-------                      ---------6------------|
D|--------------------------------------------------                      ----------------------|
A|--0-----------2-----------4------------4----------                      -----4----------------|
E|--------------------------------------------------                      ----------------------|

I've been feeling so small,
Watch the clock ticking off the wall,
But tonight I'm letting it go,
Spend my coin for sure

[Pre-Chorus]
I'm gonna be myself,
Or I could be someone else,
No one's stopping me now,
I'm gonna skip my breaks,
I'm gonna make mistakes,
I just wanna feel alive

*silent*
It's just what I do when I'm out so

[Chorus]
C#m        B       A
Try not to hold me down,
C#m
Feel alive,
         B       A
When I'm in this town,
C#m           
Look at those beautiful stars,
B               A
I wanna drive a faster car,
A
Nothing can break me,
A
No, no,
A
Nothing can break me

C#m        B       A
Try not to hold me down,
C#m
Feel alive,
         B       A
When I'm in this town,
C#m           
Look at those beautiful stars,
B              A
I wanna take a trip to Mars
A
Nothing can break me,
A
No, no,
A
Nothing can break me

C#m    B    A
C#m    B    A
C#m    B    A
C#m      
Look at the beautiful stars
B               A
I wanna drive a faster car

[Verse 2]
(repeat throughout verse and prechorus)
e|-------------------------------------------------- *last note in verse: ---------4------------|
B|-----2-----------4-----------5------------5-------      and prechorus   ----------------------|
G|-----2-----------4-----------6------------6-------                      ---------6------------|
D|--------------------------------------------------                      ----------------------|
A|--0-----------2-----------4------------4----------                      -----4----------------|
E|--------------------------------------------------                      ----------------------|

Lay my troubles to rest,
Blow the smoke through my cigarette,
City lights looking fine,
And know that this is my time now

[Pre-Chorus]
I'm gonna be myself,
Or I could be someone else,
No one's stopping me now,
I'm gonna skip my breaks,
I'm gonna make mistakes,
I just wanna feel alive

*silent*
It's just what I do when I'm out so

[Chorus]
C#m        B       A
Try not to hold me down,
C#m
Feel alive,
         B       A
When I'm in this town,
C#m           
Look at those beautiful stars,
B      A
I wanna drive a faster car,
A
Nothing can break me,
A
No, no,
A
Nothing can break me


C#m        B       A
Try not to hold me down,
C#m
Feel alive,
         B       A
When I'm in this town,
C#m           
Look at those beautiful stars,
B              A
I wanna take a trip to Mars
A
Nothing can break me,
A
No, no,
A
Nothing can break me

C#m    B    A
C#m    B    A
C#m    B    A
C#m      
Look at the beautiful stars
B      A
I wanna drive a faster car

[Bridge]
C#m
I'm gonna be myself,
B            A
I'm gonna be someone else,
C#m
I'm gonna be myself,
B            A
I'm gonna be someone else,
C#m 
I'm gonna skip my breaks,
B         A
I'm gonna make mistakes,
C#m 
I'm gonna skip my breaks,
B         A
I'm gonna make mistakes,

C#m
I'm gonna be myself,
B            A
I'm gonna be someone else,
C#m
I'm gonna be myself,
B            A
I'm gonna be someone else,
C#m 
I'm gonna skip my breaks,
B         A
I'm gonna make mistakes,
C#m 
I'm gonna skip my breaks,
B         A
I'm gonna make mistakes,

[Chorus]
C#m        B       A
Try not to hold me down,
C#m
Feel alive,
         B       A
When I'm in this town,
C#m           
Look at those beautiful stars,
B      A
I wanna drive a faster car,
A
Nothing can break me,
A
No, no,
A
Nothing can break me


C#m        B       A
Try not to hold me down,
C#m
Feel alive,
         B       A
When I'm in this town,
C#m           
Look at those beautiful stars,
B              A
I wanna take a trip to Mars
A
Nothing can break me,
A
No, no,
A
Nothing can break me
 
 
Anders Lystell - Faster Car :: indexed at Ultimate Guitar.
Faster Car tabs @ 911Tabs
People who played Anders Lystell - Faster Car also played these songs by Anders Lystell:
Were Just Friends Acoustic Chords, Were Just Friends Acoustic

Quick tip, so you can enjoy Faster Car even more:

After the registration (which takes just 10 seconds, remember?) you will be able to use your profile - your very own piece of YourChords.com.

Show us your talent, perform Faster Car!

Here you can post a video or audio performance. Tell me more ...
Where can we find your performance? Tell me more ...
Your comment:
Please, log in to post your performance.