Artists by letter: A B C D E F G H I J K L M N O P Q R S T U V W X Y Z 0-9

 
Mystic And Divine
-------------------------------------------------------------------------------
                             MYSTIC AND DIVINE - LUCA TURILLI
-------------------------------------------------------------------------------
Tabbed by: P4pp3r/Simon
Tuning: Standard
Key: F#m

I tried my best with the timing here, but I bet that you guys will figure it out. :)
Comment if you have any comments (obviously...)or any questions! :D


Verse 1 (Guitar enters at 0:41)

e|----------------------------------------------|
B|----------------------------------------------|
G|----------------------------------------------|
D|--4----------4---------4----------4-----------|
A|--4----------4---------4----------4-----------|
E|--2--------2-2-----222-2--------2-2-----------|
             .       ...          .

Chorus (Starts at 0:56)

e|---------------------------------------------------------------------------------|
B|---------------------------------------------------------------------------------|
G|-----------6---6-----7-77-4-44-2---2-----4---4-------------------------6---6-----|
D|-4---4-----6---6-----7-77-4-44-2---2-----4---4-----4---4-----6---6-----6---6-----| TWO TIMES
A|-4---4-----4-4-4-444-5-55-2-22-0-0-0-000-2-2-2-222-4---4-----6---6-----4-4-4-444-|
E|-2-2-2-222-----------------------------------------2-2-2-222-4-4-4-444-----------|
     .   ...   .   ...             .   ...   .   ...   .   ...   .   ...   .   ...

Verse 2 (Guitar enters at 1:51)

e|----------------------------------------------|
B|----------------------------------------------|
G|----------------------------------------------|
D|--4----------4---------4----------4-----------|
A|--4----------4---------4----------4-----------|
E|--2--------2-2-----222-2--------2-2-----------|
             .       ...          .

Chorus (Starts at 2:06)

e|---------------------------------------------------------------------------------|
B|---------------------------------------------------------------------------------|
G|-----------6---6-----7-77-4-44-2---2-----4---4-------------------------6---6-----|
D|-4---4-----6---6-----7-77-4-44-2---2-----4---4-----4---4-----6---6-----6---6-----| TWO TIMES
A|-4---4-----4-4-4-444-5-55-2-22-0-0-0-000-2-2-2-222-4---4-----6---6-----4-4-4-444-|
E|-2-2-2-222-----------------------------------------2-2-2-222-4-4-4-444-----------|
     .   ...   .   ...             .   ...   .   ...   .   ...   .   ...   .   ...

Piano bridge/solo (Starts at 2:36)

e|--------------|
B|--------------|
G|--------------|
D|-(4)~---------|
A|-(4)~---------|
E|--2~----------|

Chorus (Starts at 3:02)

e|---------------------------------------------------------------------------------|
B|---------------------------------------------------------------------------------|
G|-----------6---6-----7-77-4-44-2---2-----4---4-------------------------6---6-----|
D|-4---4-----6---6-----7-77-4-44-2---2-----4---4-----4---4-----6---6-----6---6-----| TWO TIMES
A|-4---4-----4-4-4-444-5-55-2-22-0-0-0-000-2-2-2-222-4---4-----6---6-----4-4-4-444-|
E|-2-2-2-222-----------------------------------------2-2-2-222-4-4-4-444-----------|
     .   ...   .   ...             .   ...   .   ...   .   ...   .   ...   .   ...

e|---------------------------------------------------------------------------------|
B|---------------------------------------------------------------------------------|
G|-----------6---------7----4----2---------4-----------------------------6---------|
D|-4---------6---------7----4----2---------4---------4---------6---------6---------|
A|-4---------4---------5----2----0---------2---------4---------6---------4---------|
E|-2-------------------------------------------------2---------4-------------------|

e|---------------------------------------------------------------------------------|
B|---------------------------------------------------------------------------------|
G|-----------6---6-----7-77-4-44-2---2-----4---4-------------------------6---6-----|
D|-4---4-----6---6-----7-77-4-44-2---2-----4---4-----4---4-----6---6-----6---6-----|
A|-4---4-----4-4-4-444-5-55-2-22-0-0-0-000-2-2-2-222-4---4-----6---6-----4-4-4-444-|
E|-2-2-2-222-----------------------------------------2-2-2-222-4-4-4-444-----------|
     .   ...   .   ...             .   ...   .   ...   .   ...   .   ...   .   ...

The End

e|--------------|
B|--------------|
G|--------------|
D|-(4)~---------|
A|-(4)~---------|
E|--2~----------|
 
 
Luca Turilli - Mystic And Divine :: indexed at Ultimate Guitar.
Mystic And Divine tabs @ 911Tabs

About the artist behind Mystic And Divine:

Luca Turilli (born 5 March 1972) is an Italian musician (primarily a guitarist) and composer. He is one of the founders of the symphonic power metal band Rhapsody of Fire. He also worked on a trilogy of solo albums as Luca Turilli. He has now formed a second side band, named Luca Turilli's Dreamquest, alongside Dominique Leurquin, which released its first album, Lost Horizons, in the summer of 2006.

On every Rhapsody of Fire albums, Luca is the only lyricist and composes all the music with the keyboardist, Alex Staropoli (except for Il Canto del Vento written, lyrics and music, by the vocalist, Fabio Lione) and plays most of the lead guitars. He composes all the music for both his solo projects. He plays guitars on his solo trilogy and keyboards with Luca Turilli's Dreamquest featuring Dominique Leurquin as the guitarist.

Indexed at Wikipedia.

Show us your talent, perform Mystic And Divine!

Here you can post a video or audio performance. Tell me more ...
Where can we find your performance? Tell me more ...
Your comment:
Please, log in to post your performance.