Artists by letter: A B C D E F G H I J K L M N O P Q R S T U V W X Y Z 0-9

 
Starting Over
-------------------------------------------------------------------------------
       STARTING OVER " LSD and the Search for God
-------------------------------------------------------------------------------
Tabbed by: jma1111
Tuning: E Standard

This song is played with heavy chorus, vibrato, and likely uses the glide guitar
technique using the tremolo bar in-hand while strumming and hitting notes. This
can cause the notes' pitch to sound wrong, so be sure to use these effects to
get the tone.

Part 1: This part is played throughout the song with random note order variations.       
e|---------9-----9------------------------------------|
B|-----9-----9-----9-------------9---9-9--------------|
G|---6---6-----6-----6---------8---8-----8------------|
D|---------------------------6------------------------|
A|----------------------------------------------------|
E|----------------------------------------------------|

Part 2: This part comes in at 0:20 in the track. Same notes as part 1, just
strummed, emphasizing on the high to strings.
e|---9-9-9-9-9-9------9-9-9-9-9-9---------------------|
B|---9-9-9-9-9-9------9-9-9-9-9-9---------------------|
G|---6-6-6-6-6-6------8-8-8-8-8-8---------------------|
D|--------------------6-6-6-6-6-6---------------------|
A|----------------------------------------------------|
E|----------------------------------------------------|

Part 3: This is the distorted chord part. 
e|----------------------------------------------------|
B|----------------------------------------------------|
G|---6--8--6--8--6--8--6--3--8------------------------|
D|---7--9--7--9--7--9--7--4--9------------------------|
A|---7--9--7--9--7--9--7--4--9------------------------|
E|---5--7--5--7--5--7--5--2--7------------------------|
 
 
LSD and the Search For God - Starting Over :: indexed at Ultimate Guitar.
Starting Over tabs @ 911Tabs

Quick tip, so you can enjoy Starting Over even more:

YourChords.com Guitar Chords and Tabs Archive is currently indexing over 240'000 songs from 21'000+ different artists. And new chords just keep on coming in, so you will surely never run out of them.

Show us your talent, perform Starting Over!

Here you can post a video or audio performance. Tell me more ...
Where can we find your performance? Tell me more ...
Your comment:
Please, log in to post your performance.