Artists by letter: A B C D E F G H I J K L M N O P Q R S T U V W X Y Z 0-9

 
What I Saw
What I Saw
From the album Constant Companion

        G                   C        G        Em        C        G
|------------------------------------------------------------------------------|
|-1p0---0---1p0-------1p0------1p0---0------3------1p0------1p0---0---1p0------|
|-----2---------2-0-------2--------2-----/4--4---------2--------2----------2-0-|
|---------------------------2------------------2---------2---------------------|
|------------------------------------------------------------------------------|
|------------------------------------------------------------------------------|

             G
Fell out of love, wandered around
              C                 G
Wore out my shoes, went to the town
              Em                       C
Wouldn't you know that I couldn't get back
                  G
The train that I took was torn from the track

         C          G
Did you see what I saw?
          C            G
Could it be that I've lost
              Em                 C
the way to go on and a reason to go
                G
and all that I see is all that I know?

        G                   C        G        Em              C          G
|-----------------------------------------------3-7-----7/5---------------------------|
|-5/3-1-3----5/3-1-0----5/3-1-----5/3-1-3----/5-------------8-5----5/3-1-3----5/3-1-0-|
|-----------------------------0-------------------------------------------------------|
|-------------------------------------------------------------------------------------|
|-------------------------------------------------------------------------------------|
|-------------------------------------------------------------------------------------|

           G
Cities of fear, lonesome rooms
           C               G
Vanishing words echo the gloom
           Em                        C
Up on the hill, and I looked to the sea
                  G        
the ship on the shore was waiting for me

         C          G
Did you see what I saw?
          C            G
Could it be that I've lost
              Em                 C
the way to go on and a reason to go
                G
and all that I see is all that I know?

        G                   C        G        Em        C        G
|-----------------------------------------------------------------------------3-|
|-1p0-------1p0-------1p0------1p0---0------3-------1p0------1p0---0---5/3--1-0-|
|-----2-0-------2-0-------2--------2-----/4---4---------2--------2------------0-|
|---------------------------2-------------------2---------2-------------------0-|
|-----------------------------------------------------------------------------2-|
|-----------------------------------------------------------------------------3-|
 
 
Doug Paisley - What I Saw :: indexed at Ultimate Guitar.
What I Saw tabs @ 911Tabs

Quick tip, so you can enjoy What I Saw even more:

YourChords.com Guitar Chords and Tabs Archive is currently indexing over 240'000 songs from 21'000+ different artists. And new chords just keep on coming in, so you will surely never run out of them.

Show us your talent, perform What I Saw!

Here you can post a video or audio performance. Tell me more ...
Where can we find your performance? Tell me more ...
Your comment:
Please, log in to post your performance.