Artists by letter: A B C D E F G H I J K L M N O P Q R S T U V W X Y Z 0-9

 
Dont Make Me Wait
Don't Make Me Wait
From the album Constant Companion

INTRO:
E D C#m B A G#m A B A E 
                     |-------------------------|
                     |-------------------------|
                     |-------------------------|
                     |-------------------------|[Fill 1]
                     |-----0-0h2-2-0h2-2-------|
                     |-0h2---------------0h2h4-|

VERSE:
A
Darling is this a sign of change that's coming
                                               E D C#m B A G#m A B A E [Fill 1]
Clouds are rolling, there's a moaning like wind                      
A
Don't call me to stir your troubled mind
                                         E D C#m B A G#m A B A E [Fill 1]       
I remember each and every thing we worked

PRE-CHORUS:
A
You make me sorry. And you make me worried
                       E     F#m
Sometimes you make me hurt so

CHORUS:
               A
Don't make me wait
                             E
if you know you're through trying
               A
Don't make me wait
           E
here all alone
               Bm
Don't make me wait
                       A
if you feel your love dying
            B                 A                           E D C#m B A G#m A B A E [Fill 1]
Just turn away                           Don't make me wait            
          |----------------------------------------|
          |---7---7-------------5---5------5---5---|
          |---8---8---/9-8------6---6------6---6---|
          |-----9---9------7------7---7------7---7-|
          |-9-----------------7----------7---------|
          |-7-----------------5---------(5)--------|

VERSE:
A
Outside my window the scene is changing
                                           E
Clouds are lifting and the world looks so old
A
I've been running for so long, sometimes just to carry on
                                       E D C#m B A G#m A B A E [Fill 1]
And there's so little left to hold onto

VERSE:
A
You'll grow in time, your heart will ache like mine
                                          E
You'll step out of the dark, and I'll be gone
A
And you'll learn to love again 'cause somehow in the end
                                   E D C#m B A G#m A B A E [Fill 1]
It's so easy for you just to move on

PRE-CHORUS:
A
Darling, we've been running. There's nowhere left to run to
                                      E   F#m
We always knew this day would surely come

CHORUS:
               A
Don't make me wait
                             E
if you know you're through trying
               A
Don't make me wait
           E
here all alone
               Bm
Don't make me wait
                       A
if you feel your love dying
            B                 A                           E D C#m B A G#m A B A E
Just turn away                           Don't make me wait            
          |----------------------------------------|
          |---7---7-------------5---5------5---5---|
          |---8---8---/9-8------6---6------6---6---|
          |-----9---9------7------7---7------7---7-|
          |-9-----------------7----------7---------|
          |-7-----------------5---------(5)--------|

OUTRO:
         A  E           B  A           E
|--------0--0-----------2--0-----------0------------0-|
|--------2--0-----------4--2-----------0------------0-|
|-1h2-4--2--1----1h2-4--4--2----1h2-1--1-----1h2-1--1-|
|--------2--2-----------4--2-----------2------------2-|
|--------0--2-----------2--0-----------2------------2-|
|-----------0--------------------------0------------0-|
 
 
Doug Paisley - Dont Make Me Wait :: indexed at Ultimate Guitar.
Dont Make Me Wait tabs @ 911Tabs
People who played Doug Paisley - Dont Make Me Wait also played these songs by Doug Paisley:
End Of The Day Tab, Wide Open Plain Chords, End Of The Day Tab, No One But You Tab, Come Here My Love Tab, Always Say Goodbye Chords

Quick tip, so you can enjoy Dont Make Me Wait even more:

If you don't really know how to deal with "Absus4" chord and his equally confusing brothers, just put the mouse cursor over them and you will be shown a helpful chord diagram.

Show us your talent, perform Dont Make Me Wait!

Here you can post a video or audio performance. Tell me more ...
Where can we find your performance? Tell me more ...
Your comment:
Please, log in to post your performance.