Artists by letter: A B C D E F G H I J K L M N O P Q R S T U V W X Y Z 0-9

 
Broken In Two
Broken in Two
From the album Doug Paisley

 (C)    F      C      F     Bb      F          C
|----------------------------------------------------0-|
|------------------------------------------------1-----|
|-------2--0-2-0----0-2--0-----------------0-2-0---0---|
|---0-------------3--------3-0--3-0---3--3-------------|
|-3---3-----------------------------3------------------|
|------------------------------------------------------|

 (C)    F      C      F     Bb      F    C     F
|------------------------------------------------|
|------------------------------------------------|
|-------2--0-2-0----0-2--0---------------0-2-0---|
|---0-------------3--------3-0--3-0---3--------3-|
|-3---3-----------------------------3------------|
|------------------------------------------------|

               F            C
Look now the tears in your eyes
           F            Bb
Are just clouds passing by
        F                             C
In the wild wind, the wild seeds are sown

        F             C
It's a lost one who grieves
        F            Bb
When a false lover leaves
        F         C             F
Who mistakes his love for your own

           Bb                    Dm
Broken in two, is this what you wanted?
           Am                    Gm
You can't keep your love to yourself
         Bb                Dm
Now you say your heart is haunted -- How
          F          Eb       Bb      F                       
will you give it to somebody else?

 (C)    F      C      F     Bb      F          C
|----------------------------------------------------0-|
|------------------------------------------------1-----|
|-------2--0-2-0----0-2--0-----------------0-2-0---0---|
|---0-------------3--------3-0--3-0---3--3-------------|
|-3---3-----------------------------3------------------|
|------------------------------------------------------|

 (C)    F      C      F     Bb      F    C     F
|------------------------------------------------|
|------------------------------------------------|
|-------2--0-2-0----0-2--0---------------0-2-0---|
|---0-------------3--------3-0--3-0---3--------3-|
|-3---3-----------------------------3------------|
|------------------------------------------------|

          Bb       Dm       Am     Gm  Bb    Dm     F   Eb  Bb  F
|----------------------------------------------------------------|
|----------------------------------------------------------------|
|-----5---7----7-5-----------------------7-5---------------------|
|--/7---7----------7-------------------------7-------------------|
|----------------------------------------------------------------|
|----------------------------------------------------------------|

         F         C
In your pain you imagine
    F             Bb
It must make her love you
      F                      C
But friend you are finally alone

     F             C
The rust, it has grown
        F            Bb
on the door to your home
            F            C             F 
It's the springtime and you should be gone

           Bb                    Dm
Broken in two, is this what you wanted?
           Am                    Gm
You can't keep your love to yourself
         Bb                Dm
Now you say your heart is haunted -- How
          F          Eb       Bb      F                       
will you give it to somebody else?

 (C)    F      C      F     Bb      F          C
|-------------------------------------------------------|
|-------------------------------------------------1---1-|
|-------2--0-2-0----0-2--0------------------0-2-0---0---|
|---0-------------3--------3-0--3-0---3---3-------------|
|-3---3-----------------------------3---3---------------|
|-------------------------------------------------------|

 (C)    F      C      F     Bb      F    C     F  C  F
|--------------------------------------------|
|--------------------------------------------|
|-------2--0-2-0----0-2--0---------------0-0-|
|---0-------------3--------3-0--3-0---3------|
|-3---3-----------------------------3--------|
|--------------------------------------------|
 
 
Doug Paisley - Broken In Two :: indexed at Ultimate Guitar.
Broken In Two tabs @ 911Tabs

Quick tip, so you can enjoy Broken In Two even more:

YourChords.com Guitar Chords and Tabs Archive is currently indexing over 240'000 songs from 21'000+ different artists. And new chords just keep on coming in, so you will surely never run out of them.

Show us your talent, perform Broken In Two!

Here you can post a video or audio performance. Tell me more ...
Where can we find your performance? Tell me more ...
Your comment:
Please, log in to post your performance.