Artists by letter: A B C D E F G H I J K L M N O P Q R S T U V W X Y Z 0-9

 
Misas Negras
    STACATO:
C |---------------------------------------|
G |---------------------------------------|
D#|---------------------------------------|
Bb|-5-4-----------7-5----------7-5--------|x2
F |-5-4-----------7-5----------7-5--------|
C |-3-2-----------5-3----------5-3--------|
    Quiero putas, rateros y gordos
    La misa necesita sangre podrida

C |----------------------------------------------|
G |----------------------------------------------|
D#|----------------------------------------------|
Bb|-5-4--5-4--5-4--5-4--7-7-77-5-5-5-7-7-7-5-5-5-|x4
F |-5-4--5-4--5-4--5-4--7-7-77-5-5-5-7-7-7-5-5-5-|
C |-3-2--3-2--3-2--3-2--5-5-55-3-3-3-5-5-5-3-3-3-|
    Elpoderquetengoledoygraciasalreyprendelasvelasytraeelmachete
    Mi padre negro espera su sacrificio
    Los animales no ayudan, búscame gente... Un gordo
    sin pito, pobrecito, Tu alma no se escapa

C |----------------------------------------|
G |----------------------------------------|
D#|----------------------------------------|
Bb|----------------------------7-5-7-5-7-5-|x4
F |-44444444-55555555-22222222-7-5-7-5-7-5-|
C |-22222222-33333333-00000000-5-3-5-3-5-3-|
   Amarra ese buey como un pinche cerdo Amárralo y encuéralo en el piso
    El machete filoso te parte el buche
    Cabeza en mano de cuerpo gastado, un alma más para Satanas!!
    Un sacrificio me da poder

    STACATO:
C |---------------------------------------|
G |---------------------------------------|
D#|---------------------------------------|
Bb|-5-4-----------7-5----------7-5--------|
F |-5-4-----------7-5----------7-5--------|
C |-3-2-----------5-3----------5-3--------|
    Llena el balde con sesos, chingo cristianos pendejos

    (1 vez sin voz)
C |----------------------------------------------|
G |----------------------------------------------|
D#|----------------------------------------------|
Bb|-5-4--5-4--5-4--5-4--7-7-77-5-5-5-7-7-7-5-5-5-|x4
F |-5-4--5-4--5-4--5-4--7-7-77-5-5-5-7-7-7-5-5-5-|
C |-3-2--3-2--3-2--3-2--5-5-55-3-3-3-5-5-5-3-3-3-|
    Elpoderquetengoledoygraciasalreyprendelasvelasytraeelmachete
    Mi padre negro espera su sacrificio
    Los animales no ayudan, búscame gente

C |----------------------------------------|
G |----------------------------------------|
D#|----------------------------------------|
Bb|----------------------------7-5-7-5-7-5-|x4
F |-44444444-55555555-22222222-7-5-7-5-7-5-|
C |-22222222-33333333-00000000-5-3-5-3-5-3-|
    Un gordo sin pito, pobrecito
    Tu alma no se escapa, gordo sin pito
    Misas negras, misas negras,
    misas negras, misas negras
 
 
Brujeria - Misas Negras :: indexed at Ultimate Guitar.
Misas Negras tabs @ 911Tabs
People who played Brujeria - Misas Negras also played these songs by Brujeria:
Pito Wilson Tab, Brujerizmo Tab, Consejos Narcos Tab, Matando Gueros Tab, Division Del Norte Tab, La Ley De Plomo Tab

About the artist behind Misas Negras:

Brujeria is an extreme metal band. Their name comes from a Spanish word meaning "witchcraft". Their Satanic, narcotic, and masked attitude have been their green-card to success, although they have recently performed live at locations across the United States and Latin America. The have been nominated at the Latin Grammy Awards for Best Rock Album in 2000.

Their songs, which are sung entirely in Spanish, are focused on Satanism, anti-Christianity, sex, immigration, narcotics smuggling, politics and also include lyrics about killing white people (despite having some white members in the band) so it is likely tongue in cheek.

Brujeria are admittedly a side-project of founding member and Asesino stalwart Dino Cazares, and has featured artists such as Billy Gould, Nicholas Barker, Raymond Herrera, Jeff Walker, and Shane Embury. They perform under pseudonyms and portray themselves as a Latino band consisting of drug lords, concealing their identities due to being wanted by the FBI. Their lineup has changed over time, however, and could be different at any point in time.

After 3 compilation albums released in 7 years, there's rumours about a fourth Brujería album scheduled for release sometime in 2008, but details are still unknown. In March the band release a new single called "Debilador", possibilly taken off from the next album.

Indexed at Wikipedia.

Show us your talent, perform Misas Negras!

Here you can post a video or audio performance. Tell me more ...
Where can we find your performance? Tell me more ...
Your comment:
Please, log in to post your performance.