Artists by letter: A B C D E F G H I J K L M N O P Q R S T U V W X Y Z 0-9

 
Too Old To Die Young
Too Old to Die Young By Brother Dege
 And thanks to Eric Legaud, an awsome Frenchmen, for this tabs. 

Open E tuning
Capo 3rd frett

Slider/bottleneck is needed in the chorus. 
Brother Deege uses a steel one, but glass works almost in the same way for untrained ears. 
You can also use brass or ceramic, which will create a different, but still awsome sound. 

Video lesson: http://www.youtube.com/watch?v=bJBp3WSJKCI


[Intro:] Repeat 2 times
E |-0-------------------------------|--------------------------------|
B |-0---0---0-------0-----------0---|------0---0-------0-------------|
G#|-3---3---1---1---1---1---1---3---|-(3)--3---1---1---1---1---1---1-|
E |-0-----------3-------3---0-------|--------------3-------3---0---0-|
B |-0-------------------------------|--------------------------------|
E |-0-------------------------------|--------------------------------|

E |---------------------------------|--------------------------------|
B |-0---0---0-------0---------------|------------------0---0---0-----|
G#|-3---3---1---1---1---1---1---1---|------1---1-------1---3---1-----|
E |-------------3-------3---0---3---|-(3)--3---0---0-----------------|
B |---------------------------------|--------------3-----------------|
E |---------------------------------|--------------------------------|

[Bridge:] (/ -slide with slider/bottleneck)
E |-0---0---x--/3--/3---0--/3---0---|-0---0---x--/5--/5---0--/3---0--|
B |-0---0---x--/3--/3---0--/3---0---|-0---0---x--/5--/5---0--/3---0--|
G#|-x---x---x--/3--/3---0--/3---0---|-x---x---x--/5--/5---0--/3---0--|
E |-0---0---x--/3--/3---0--/3---0---|-0---0---x--/5--/5---0--/3---0--|
B |-0---0---x--/3--/3---0--/3---0---|-0---0---x--/5--/5---0--/3---0--|
E |-0---0---x--/3--/3---0--/3---0---|-0---0---x--/5--/5---0--/3---0--|

E |-0---0---x--/3--/3---0--/3---0---|-/3--3---3---0--/5---5---0---0--|
B |-0---0---x--/3--/3---0--/3---0---|-/3--3---3---0--/5---5---0---0--|
G#|-x---x---x--/3--/3---0--/3---0---|-/3--3---3---0--/5---5---0---0--|
E |-0---0---x--/3--/3---0--/3---0---|-/3--3---3---0--/5---5---0---0--|
B |-0---0---x--/3--/3---0--/3---0---|-/3--3---3---0--/5---5---0---0--|
E |-0---0---x--/3--/3---0--/3---0---|-/3--3---3---0--/5---5---0---0--|


[Chorus 1/2]: Play the first part 3 times, the second part 1 time. 
E |-0---0---x---x---x-|             |-/3--3---3---0--/5---5---0---0--|
B |-0---0---x---x---x-|             |-/3--3---3---0--/5---5---0---0--|
G#|-x---x---x---x---x-|             |-/3--3---3---0--/5---5---0---0--|
E |-0---0---x---x---x-|             |-/3--3---3---0--/5---5---0---0--|
B |-0---0---x---x---x-|             |-/3--3---3---0--/5---5---0---0--|
E |-0---0---x---x---x-| x3          |-/3--3---3---0--/5---5---0---0--| x1


[Bridge]: (/ -slide with slider/bottleneck)
E |-0---0---x--/3--/3---0--/3---0---|-0---0---x--/5--/5---0--/3---0--|
B |-0---0---x--/3--/3---0--/3---0---|-0---0---x--/5--/5---0--/3---0--|
G#|-x---x---x--/3--/3---0--/3---0---|-x---x---x--/5--/5---0--/3---0--|
E |-0---0---x--/3--/3---0--/3---0---|-0---0---x--/5--/5---0--/3---0--|
B |-0---0---x--/3--/3---0--/3---0---|-0---0---x--/5--/5---0--/3---0--|
E |-0---0---x--/3--/3---0--/3---0---|-0---0---x--/5--/5---0--/3---0--|

E |-0---0---x--/3--/3---0--/3---0---|-/3--3---3---0--/5---5---0---0--|
B |-0---0---x--/3--/3---0--/3---0---|-/3--3---3---0--/5---5---0---0--|
G#|-x---x---x--/3--/3---0--/3---0---|-/3--3---3---0--/5---5---0---0--|
E |-0---0---x--/3--/3---0--/3---0---|-/3--3---3---0--/5---5---0---0--|
B |-0---0---x--/3--/3---0--/3---0---|-/3--3---3---0--/5---5---0---0--|
E |-0---0---x--/3--/3---0--/3---0---|-/3--3---3---0--/5---5---0---0--|


[Chorus 1/2]: Play the first part 3 times, the second part 1 time. 
E |-0---0---x---x---x-|             |-/3--3---3---0--/5---5---0---0--|
B |-0---0---x---x---x-|             |-/3--3---3---0--/5---5---0---0--|
G#|-x---x---x---x---x-|             |-/3--3---3---0--/5---5---0---0--|
E |-0---0---x---x---x-|             |-/3--3---3---0--/5---5---0---0--|
B |-0---0---x---x---x-|             |-/3--3---3---0--/5---5---0---0--|
E |-0---0---x---x---x-| x3          |-/3--3---3---0--/5---5---0---0--| x1


[Bridge]: (/ -slide with slider/bottleneck)
E |-0---0---x--/3--/3---0--/3---0---|-0---0---x--/5--/5---0--/3---0--|
B |-0---0---x--/3--/3---0--/3---0---|-0---0---x--/5--/5---0--/3---0--|
G#|-x---x---x--/3--/3---0--/3---0---|-x---x---x--/5--/5---0--/3---0--|
E |-0---0---x--/3--/3---0--/3---0---|-0---0---x--/5--/5---0--/3---0--|
B |-0---0---x--/3--/3---0--/3---0---|-0---0---x--/5--/5---0--/3---0--|
E |-0---0---x--/3--/3---0--/3---0---|-0---0---x--/5--/5---0--/3---0--|

E |-0---0---x--/3--/3---0--/3---0---|-/3--3---3---0--/5---5---0---0--|
B |-0---0---x--/3--/3---0--/3---0---|-/3--3---3---0--/5---5---0---0--|
G#|-x---x---x--/3--/3---0--/3---0---|-/3--3---3---0--/5---5---0---0--|
E |-0---0---x--/3--/3---0--/3---0---|-/3--3---3---0--/5---5---0---0--|
B |-0---0---x--/3--/3---0--/3---0---|-/3--3---3---0--/5---5---0---0--|
E |-0---0---x--/3--/3---0--/3---0---|-/3--3---3---0--/5---5---0---0--|


[Chorus 1/2]: Play the first part 3 times, the second part 1 time. 
E |-0---0---x---x---x-|             |-/3--3---3---0--/5---5---0---0--|
B |-0---0---x---x---x-|             |-/3--3---3---0--/5---5---0---0--|
G#|-x---x---x---x---x-|             |-/3--3---3---0--/5---5---0---0--|
E |-0---0---x---x---x-|             |-/3--3---3---0--/5---5---0---0--|
B |-0---0---x---x---x-|             |-/3--3---3---0--/5---5---0---0--|
E |-0---0---x---x---x-| x3          |-/3--3---3---0--/5---5---0---0--| x1


[Chorus 2/2]: Play the two first parts 3 times, and the third part once.
E |-0---0-------0-------0-------0---|-----0-------0-------0-------0--|
B |-0---0-------0-------0-------0---|-----0-------0-------0-------0--|
G#|-1---1-------1-------1-------1---|-----1-------1-------1-------1--|
E |-0-------0-------0------0--------|-3-------3-------2--------------|
B |-0-------------------------------|-------------------------3------|
E |-0-------------------------------|--------------------------------|

E |-----0-------0------0-------0----|
B |-----0-------0------0-------0----|
G#|-----3-------3------3-------3----|
E |---------------------------------|
B |-1-------1-------3------3--------|
E |---------------------------------| x1


[Bridge]: (/ -slide with slider/bottleneck)
E |-0---0---x--/3--/3---0--/3---0---|-0---0---x--/5--/5---0--/3---0--|
B |-0---0---x--/3--/3---0--/3---0---|-0---0---x--/5--/5---0--/3---0--|
G#|-x---x---x--/3--/3---0--/3---0---|-x---x---x--/5--/5---0--/3---0--|
E |-0---0---x--/3--/3---0--/3---0---|-0---0---x--/5--/5---0--/3---0--|
B |-0---0---x--/3--/3---0--/3---0---|-0---0---x--/5--/5---0--/3---0--|
E |-0---0---x--/3--/3---0--/3---0---|-0---0---x--/5--/5---0--/3---0--|

E |-0---0---x--/3--/3---0--/3---0---|-/3--3---3---0--/5---5---0---0--|
B |-0---0---x--/3--/3---0--/3---0---|-/3--3---3---0--/5---5---0---0--|
G#|-x---x---x--/3--/3---0--/3---0---|-/3--3---3---0--/5---5---0---0--|
E |-0---0---x--/3--/3---0--/3---0---|-/3--3---3---0--/5---5---0---0--|
B |-0---0---x--/3--/3---0--/3---0---|-/3--3---3---0--/5---5---0---0--|
E |-0---0---x--/3--/3---0--/3---0---|-/3--3---3---0--/5---5---0---0--|


[Chorus 1/2]: Play the first part 3 times, the second part 1 time. 
E |-0---0---x---x---x-|             |-/3--3---3---0--/5---5---0---0--|
B |-0---0---x---x---x-|             |-/3--3---3---0--/5---5---0---0--|
G#|-x---x---x---x---x-|             |-/3--3---3---0--/5---5---0---0--|
E |-0---0---x---x---x-|             |-/3--3---3---0--/5---5---0---0--|
B |-0---0---x---x---x-|             |-/3--3---3---0--/5---5---0---0--|
E |-0---0---x---x---x-| x3          |-/3--3---3---0--/5---5---0---0--| x1


[Bridge]: (/ -slide with slider/bottleneck)
E |-0---0---x--/3--/3---0--/3---0---|-0---0---x--/5--/5---0--/3---0--|
B |-0---0---x--/3--/3---0--/3---0---|-0---0---x--/5--/5---0--/3---0--|
G#|-x---x---x--/3--/3---0--/3---0---|-x---x---x--/5--/5---0--/3---0--|
E |-0---0---x--/3--/3---0--/3---0---|-0---0---x--/5--/5---0--/3---0--|
B |-0---0---x--/3--/3---0--/3---0---|-0---0---x--/5--/5---0--/3---0--|
E |-0---0---x--/3--/3---0--/3---0---|-0---0---x--/5--/5---0--/3---0--|

E |-0---0---x--/3--/3---0--/3---0---|-/3--3---3---0--/5---5---0---0--|
B |-0---0---x--/3--/3---0--/3---0---|-/3--3---3---0--/5---5---0---0--|
G#|-x---x---x--/3--/3---0--/3---0---|-/3--3---3---0--/5---5---0---0--|
E |-0---0---x--/3--/3---0--/3---0---|-/3--3---3---0--/5---5---0---0--|
B |-0---0---x--/3--/3---0--/3---0---|-/3--3---3---0--/5---5---0---0--|
E |-0---0---x--/3--/3---0--/3---0---|-/3--3---3---0--/5---5---0---0--|


[Chorus 1/2]: Play the first part 3 times, the second part 1 time. 
E |-0---0---x---x---x-|             |-/3--3---3---0--/5---5---0---0--|
B |-0---0---x---x---x-|             |-/3--3---3---0--/5---5---0---0--|
G#|-x---x---x---x---x-|             |-/3--3---3---0--/5---5---0---0--|
E |-0---0---x---x---x-|             |-/3--3---3---0--/5---5---0---0--|
B |-0---0---x---x---x-|             |-/3--3---3---0--/5---5---0---0--|
E |-0---0---x---x---x-| x3          |-/3--3---3---0--/5---5---0---0--| x1


[Bridge]: (/ -slide with slider/bottleneck)
E |-0---0---x--/3--/3---0--/3---0---|-0---0---x--/5--/5---0--/3---0--|
B |-0---0---x--/3--/3---0--/3---0---|-0---0---x--/5--/5---0--/3---0--|
G#|-x---x---x--/3--/3---0--/3---0---|-x---x---x--/5--/5---0--/3---0--|
E |-0---0---x--/3--/3---0--/3---0---|-0---0---x--/5--/5---0--/3---0--|
B |-0---0---x--/3--/3---0--/3---0---|-0---0---x--/5--/5---0--/3---0--|
E |-0---0---x--/3--/3---0--/3---0---|-0---0---x--/5--/5---0--/3---0--|

E |-0---0---x--/3--/3---0--/3---0---|-/3--3---3---0--/5---5---0---0--|
B |-0---0---x--/3--/3---0--/3---0---|-/3--3---3---0--/5---5---0---0--|
G#|-x---x---x--/3--/3---0--/3---0---|-/3--3---3---0--/5---5---0---0--|
E |-0---0---x--/3--/3---0--/3---0---|-/3--3---3---0--/5---5---0---0--|
B |-0---0---x--/3--/3---0--/3---0---|-/3--3---3---0--/5---5---0---0--|
E |-0---0---x--/3--/3---0--/3---0---|-/3--3---3---0--/5---5---0---0--|


[Chorus 1/2]: Play the first part 3 times, the second part 1 time. 
E |-0---0---x---x---x-|             |-/3--3---3---0--/5---5---0---0--|
B |-0---0---x---x---x-|             |-/3--3---3---0--/5---5---0---0--|
G#|-x---x---x---x---x-|             |-/3--3---3---0--/5---5---0---0--|
E |-0---0---x---x---x-|             |-/3--3---3---0--/5---5---0---0--|
B |-0---0---x---x---x-|             |-/3--3---3---0--/5---5---0---0--|
E |-0---0---x---x---x-| x3          |-/3--3---3---0--/5---5---0---0--| x1


[Chorus 2/2]: Play the two first parts 3 times, and the third part once.
E |-0---0-------0-------0-------0---|-----0-------0-------0-------0--|
B |-0---0-------0-------0-------0---|-----0-------0-------0-------0--|
G#|-1---1-------1-------1-------1---|-----1-------1-------1-------1--|
E |-0-------0-------0------0--------|-3-------3-------2--------------|
B |-0-------------------------------|-------------------------3------|
E |-0-------------------------------|--------------------------------|

E |-----0-------0------0-------0----|
B |-----0-------0------0-------0----|
G#|-----3-------3------3-------3----|
E |---------------------------------|
B |-1-------1-------3------3--------|
E |---------------------------------| x1


[Intro]: Repeat 2 times
E |-0-------------------------------|--------------------------------|
B |-0---0---0-------0-----------0---|------0---0-------0-------------|
G#|-3---3---1---0---1---0---0---3---|-(3)--3---1---0---1---0---0---0-|
E |-0-----------3-------3---0-------|--------------3-------3---0---0-|
B |-0-------------------------------|--------------------------------|
E |-0-------------------------------|--------------------------------|

E |---------------------------------|--------------------------------|
B |-0---0---0-------0---------------|------------------0---0---0-----|
G#|-3---3---1---0---1---0---0---0---|------0---0-------1---3---1-----|
E |-------------3-------3---0---3---|-(3)--3---0---0-----------------|
B |---------------------------------|--------------3-----------------|
E |---------------------------------|--------------------------------|


[Bridge]: (/ -slide with slider/bottleneck)
E |-0---0---x--/3--/3---0--/3---0---|-0---0---x--/5--/5---0--/3---0--|
B |-0---0---x--/3--/3---0--/3---0---|-0---0---x--/5--/5---0--/3---0--|
G#|-x---x---x--/3--/3---0--/3---0---|-x---x---x--/5--/5---0--/3---0--|
E |-0---0---x--/3--/3---0--/3---0---|-0---0---x--/5--/5---0--/3---0--|
B |-0---0---x--/3--/3---0--/3---0---|-0---0---x--/5--/5---0--/3---0--|
E |-0---0---x--/3--/3---0--/3---0---|-0---0---x--/5--/5---0--/3---0--|

E |-0---0---x--/3--/3---0--/3---0---|-/3--3---3---0--/5---5---0---0--|
B |-0---0---x--/3--/3---0--/3---0---|-/3--3---3---0--/5---5---0---0--|
G#|-x---x---x--/3--/3---0--/3---0---|-/3--3---3---0--/5---5---0---0--|
E |-0---0---x--/3--/3---0--/3---0---|-/3--3---3---0--/5---5---0---0--|
B |-0---0---x--/3--/3---0--/3---0---|-/3--3---3---0--/5---5---0---0--|
E |-0---0---x--/3--/3---0--/3---0---|-/3--3---3---0--/5---5---0---0--|


[Bridge]: (/ -slide with slider/bottleneck)
E |-0---0---x--/3--/3---0--/3---0---|-0---0---x--/5--/5---0--/3---0--|
B |-0---0---x--/3--/3---0--/3---0---|-0---0---x--/5--/5---0--/3---0--|
G#|-x---x---x--/3--/3---0--/3---0---|-x---x---x--/5--/5---0--/3---0--|
E |-0---0---x--/3--/3---0--/3---0---|-0---0---x--/5--/5---0--/3---0--|
B |-0---0---x--/3--/3---0--/3---0---|-0---0---x--/5--/5---0--/3---0--|
E |-0---0---x--/3--/3---0--/3---0---|-0---0---x--/5--/5---0--/3---0--|

E |-0---0---x--/3--/3---0--/3---0---|-/3--3---3---0--/5---5---0---0--|
B |-0---0---x--/3--/3---0--/3---0---|-/3--3---3---0--/5---5---0---0--|
G#|-x---x---x--/3--/3---0--/3---0---|-/3--3---3---0--/5---5---0---0--|
E |-0---0---x--/3--/3---0--/3---0---|-/3--3---3---0--/5---5---0---0--|
B |-0---0---x--/3--/3---0--/3---0---|-/3--3---3---0--/5---5---0---0--|
E |-0---0---x--/3--/3---0--/3---0---|-/3--3---3---0--/5---5---0---0--|


[Chorus 1/2]: Play the first part 3 times, the second part 1 time. 
E |-0---0---x---x---x-|             |-/3--3---3---0--/5---5---0---0--|
B |-0---0---x---x---x-|             |-/3--3---3---0--/5---5---0---0--|
G#|-x---x---x---x---x-|             |-/3--3---3---0--/5---5---0---0--|
E |-0---0---x---x---x-|             |-/3--3---3---0--/5---5---0---0--|
B |-0---0---x---x---x-|             |-/3--3---3---0--/5---5---0---0--|
E |-0---0---x---x---x-| x3          |-/3--3---3---0--/5---5---0---0--| x1


[Intro]: Repeat 2 times
E |-0-------------------------------|--------------------------------|
B |-0---0---0-------0-----------0---|------0---0-------0-------------|
G#|-3---3---1---0---1---0---0---3---|-(3)--3---1---0---1---0---0---0-|
E |-0-----------3-------3---0-------|--------------3-------3---0---0-|
B |-0-------------------------------|--------------------------------|
E |-0-------------------------------|--------------------------------|

E |---------------------------------|--------------------------------|
B |-0---0---0-------0---------------|------------------0---0---0-----|
G#|-3---3---1---0---1---0---0---0---|------0---0-------1---3---1-----|
E |-------------3-------3---0---3---|-(3)--3---0---0-----------------|
B |---------------------------------|--------------3-----------------|
E |---------------------------------|--------------------------------|

Lyrics:

Round and round
Round we go
Where it stops?
Nobody knows it

Side to side, baby,
Back and forth
God above
And the devil below him

You got your reasons
And I got my wants
Still got that feeling
But I'm too old to die young now

Too old to die young now
Above or below the ground

Yes, too old to die young now
Still the good lord might lay me down

Round and round
Round we go.
Where it stops?
Nobody knows it

Side to side, baby,
Back and forth
God above
And the devil below him

You got your reasons
And I got my wants
Still got that feeling
But I'm too old to die young now

Too old to die young now
Above or below the ground

Yes, too old to die young now.
Still the good lord might lay me down

To let me down

T-t-t-to die young now

Too old to die young now

Above or below the ground
Still the good lord might lay me down



************************************

| x    Dead note
| (n)  Ghost note
| /    Slide up 

************************************
 
 
Brother Dege - Too Old To Die Young :: indexed at Ultimate Guitar.
Too Old To Die Young tabs @ 911Tabs
People who played Brother Dege - Too Old To Die Young also played these songs by Brother Dege:
Too Old To Die Young Tab

Quick tip, so you can enjoy Too Old To Die Young even more:

YourChords.com Guitar Chords and Tabs Archive is currently indexing over 240'000 songs from 21'000+ different artists. And new chords just keep on coming in, so you will surely never run out of them.

Show us your talent, perform Too Old To Die Young!

Here you can post a video or audio performance. Tell me more ...
Where can we find your performance? Tell me more ...
Your comment:
Please, log in to post your performance.