Artists by letter: A B C D E F G H I J K L M N O P Q R S T U V W X Y Z 0-9

 
Simulacra
-------------------------------------------------------------------------------
                             SIMULACRA - Blizzard at Sea
-------------------------------------------------------------------------------
Tabbed by:
E-mail:

Tuning:

INTRO 1
             
d|-------------------------------------------------------------------------------------------------| 
A|-------------------------------------------------------------------------------------------------|
F|-------12-14-------12-14-------12-14-------12-14-------12----------12----------12----------12----|
C|----14----------14----------14----------14----------14----14----14----14----14----14----14----14-|
G|-12----------12----------12----------12----------12----------12----------12----------12----------|
D|-------------------------------------------------------------------------------------------------|

d|-------------------------------------------------------------------------------------------------|
A|-------------------------------------------------------------------------------------------------|
F|-------12-14-------12-14-------12-14-------12-14-------12----------12----------12----------12----|
C|----14----------14----------14----------14----------14----14----14----14----14----14----14----14-|
G|-12----------12----------12----------12----------12----------12----------12----------12----------|
D|-------------------------------------------------------------------------------------------------|

d|-------------------------------------------------------------------------------------------------|
A|-------------------------------------------------------------------------------------------------|
F|-------12-11-------12-11-------12-11-------12-11-------9-10-------9-10-------9-10-------9-10-----|
C|----14----------14----------14----------14----------10---------10---------10---------10----------|
G|-12----------12----------12----------12----------12---------12---------12---------12-------------|
D|-------------------------------------------------------------------------------------------------|

d|-------------------------------------------------------------------------------------------------| 
A|-------------------------------------------------------------------------------------------------|
F|-------12-14-------12-14-------12-14-------12-14-------12----------12----------12----------12----|
C|----14----------14----------14----------14----------14----14----14----14----14----14----14----14-|
G|-12----------12----------12----------12----------12----------12----------12----------12----------|
D|-------------------------------------------------------------------------------------------------|

d|-------------------------------------------------------------------------------------------------|
A|-------------------------------------------------------------------------------------------------|
F|-------12-14-------12-14-------12-14-------12-14-------12----------12----------12----------12----|
C|----14----------14----------14----------14----------14----14----14----14----14----14----14----14-|
G|-12----------12----------12----------12----------12----------12----------12----------12----------|
D|-------------------------------------------------------------------------------------------------|

d|-------------------------------------------------------------------------------------------------|
A|-------------------------------------------------------------------------------------------------|
F|-------12-11-------12-11-------12-11-------12-11-------9-10-------9-10-------9-10-------9-10-----|
C|----14----------14----------14----------14----------10---------10---------10---------10----------|
G|-12----------12----------12----------12----------12---------12---------12---------12-------------|
D|-------------------------------------------------------------------------------------------------|

INTRO 2

d|----------------------------------------------------------------------------|
A|----------------------------------------------------------------------------|
F|---------------7-9-7------------------------------7-9-7------7--------9-----|
C|---10-9-7-9-10-------10-9-7-9-7-7-10---10-9-7-9-10------10-9---10-9-7-------|
G|-7-----------------------------------7--------------------------------------|
D|----------------------------------------------------------------------------|

d|----------------------------------------------------------------------------|
A|----------------------------------------------------------------------------|
F|-------------3-5-3----------------------------3-5-3-----3-5-------5---------|
C|---6-5-3-5-6-------6-5-3-5-3-3-6---6-5-3-5-6--------6-5-----6-5-3-----------|
G|-3-------------------------------3------------------------------------------|
D|----------------------------------------------------------------------------|

d|----------------------------------------------------------------------------|
A|----------------------------------------------------------------------------|
F|----------------------------------------------------------------------------|
C|-------------5-7-5----------------------------5-7-5-------------------------|
G|---8-7-5-7-8-------8-7-5-7-5-5-8---8-7-5-7-8--------8-7---------------------|
D|-5-------------------------------5----------------------8-7-5-5-7-----------|

VERSE

d|-------------------------------------------------------------------------------------------------------------|
A|-------------------------------------------------------------------------------------------------------------|
F|-------------------------------------------------------------------------------------------------------------|
C|-------------------------------------------------------------------------------------------------------------|
G|-8-8-8-8-8-8-8-8-8-8-8-8-7-7-7-7-7-7-7-7-7-7-7-7-8-8-8-8-8-8-8-8-8-8-8-8-7-7-7-7-7-7-7-7-7-7-7-7-------------|
D|-5-5-5-5-5-5-5-5-5-5-5-5-5-5-5-5-5-5-5-5-5-5-5-5-5-5-5-5-5-5-5-5-5-5-5-5-5-5-5-5-5-5-5-5-5-5-5-5-------------|

d|-------------------------------------------------------------------------------------------------------------|
A|-------------------------------------------------------------------------------------------------------------|
F|-------------------------------------------------------------------------------------------------------------|
C|-------------------------------------------------------------------------------------------------------------|
G|-8-8-8-8-8-8-8-8-8-8-8-8-7-7-7-7-7-7-7-7-7-7-7-7-8-8-8-8-8-8-8-8-8-8-8-8-10-10-10-10-10-10-10-10-10-10-10-10-|
D|-6-6-6-6-6-6-6-6-6-6-6-6-6-6-6-6-6-6-6-6-6-6-6-6-6-6-6-6-6-6-6-6-6-6-6-6-8--8--8--8--8--8--8--8--8--8--8--8--|

INTERLUDE 1

d|---------------------------------------------------------------------------|
A|---------------------------------------------------------------------------|
F|---------------------------------------------------------------------------|
C|---------------------------------------------------------------------------|
G|---------------------------------------------------------------------------|
D|-0-0-0-12-10-12-0-13-12-15-13-12-0-0-0-12-10-12-0-8-7-5-5-7----------------|

d|---------------------------------------------------------------------------|
A|---------------------------------------------------------------------------|
F|---------------------------------------------------------------------------|
C|---------------------------------------------------------------------------|
G|---------------------------------------------------------------------------|
D|-0-0-0-12-10-12-0-13-12-15-13-12-0-0-0-12-10-12-0-8-7-5-5-7----------------|

VERSE

d|-------------------------------------------------------------------------------------------------------------|
A|-------------------------------------------------------------------------------------------------------------|
F|-------------------------------------------------------------------------------------------------------------|
C|-------------------------------------------------------------------------------------------------------------|
G|-8-8-8-8-8-8-8-8-8-8-8-8-7-7-7-7-7-7-7-7-7-7-7-7-8-8-8-8-8-8-8-8-8-8-8-8-7-7-7-7-7-7-7-7-7-7-7-7-------------|
D|-5-5-5-5-5-5-5-5-5-5-5-5-5-5-5-5-5-5-5-5-5-5-5-5-5-5-5-5-5-5-5-5-5-5-5-5-5-5-5-5-5-5-5-5-5-5-5-5-------------|

d|-------------------------------------------------------------------------------------------------------------|
A|-------------------------------------------------------------------------------------------------------------|
F|-------------------------------------------------------------------------------------------------------------|
C|-------------------------------------------------------------------------------------------------------------|
G|-8-8-8-8-8-8-8-8-8-8-8-8-7-7-7-7-7-7-7-7-7-7-7-7-8-8-8-8-8-8-8-8-8-8-8-8-10-10-10-10-10-10-10-10-10-10-10-10-|
D|-6-6-6-6-6-6-6-6-6-6-6-6-6-6-6-6-6-6-6-6-6-6-6-6-6-6-6-6-6-6-6-6-6-6-6-6-8--8--8--8--8--8--8--8--8--8--8--8--|

INTERLUDE 1

d|---------------------------------------------------------------------------|
A|---------------------------------------------------------------------------|
F|---------------------------------------------------------------------------|
C|---------------------------------------------------------------------------|
G|---------------------------------------------------------------------------|
D|-0-0-0-12-10-12-0-13-12-15-13-12-0-0-0-12-10-12-0-8-7-5-5-7----------------|

d|---------------------------------------------------------------------------|
A|---------------------------------------------------------------------------|
F|---------------------------------------------------------------------------|
C|---------------------------------------------------------------------------|
G|---------------------------------------------------------------------------|
D|-0-0-0-12-10-12-0-13-12-15-13-12-0-0-0-12-10-12-0-8-7-5-5-7----------------|

CHORUS 1

d|---------------------------------------------------------------------------------------------------------|
A|---------------------------------------------------------------------------------------------------------|
F|---------------------------------------------------------------------------------------------------------|
C|-------9-----7-----12-10-9-------9-----7-----------------9-----7-----12-10-9-------9-----7---------------|
G|-------7-----5-----10-8--7-------7-----5-----7-7-9-------7-----5-----10-8--7-------7-----5-----7-7-9-----|
D|-0-0-0---0-0---0-0---------0-0-0---0-0---0-0-5-5-7-0-0-0---0-0---0-0---------0-0-0---0-0---0-0-5-5-7-----|

d|---------------------------------------------------------------------------------------------------------|
A|---------------------------------------------------------------------------------------------------------|
F|---------------------------------------------------------------------------------------------------------|
C|-------9-----7-----12-10-9-------9-----7-----------------9-----7-----12-10-9-------9-----7---------------|
G|-------7-----5-----10-8--7-------7-----5-----7-7-9-------7-----5-----10-8--7-------7-----5-----7-7-9-----|
D|-0-0-0---0-0---0-0---------0-0-0---0-0---0-0-5-5-7-0-0-0---0-0---0-0---------0-0-0---0-0---0-0-5-5-7-----|

CHORUS 2

e|------------------------------------------------------------------------------------------------------------|
B|------------------------------------------------------------------------------------------------------------|
G|-------9------7-7-7-10-10-10-------9-----------------------9-----7-7-7-10-10-10-------9---------------------|
D|------------------------------------------------------------------------------------------------------------|
A|-------7------5-5-5-8--8--8--------7-----7-7-7-9-7-9-------7-----5-5-5-8--8--8--------7------7-7-7-9-7-9----|
E|-0---------------------------0-----------5-5-5-7-5-7-0--------------------------0------------5-5-5-7-5-7----|

SOLO

d|---------------------------------------------------------------------------|
A|---------------------------------------------------------------------------|
F|-------------------------------14-12~--------12----------------------------|
C|-/14~----15-14-12-14~----14-15---------14-15----15~--14-12----12~----------|
G|-----------------------------------------------------------15--------------|
D|---------------------------------------------------------------------------|

d|---------------------------------------------------------------------------|
A|---------------------------------------------------------------------------|
F|----------14-12----12------------------------------------------------------|
C|-12-14-15-------15----15-14-15-14-12-14-12----12~--------------------------|
G|-------------------------------------------15------------------------------|
D|---------------------------------------------------------------------------|

d|---------------------------------------------------------------------------|
A|---------------------------------------------------------------------------|
F|-------------------------------14-12~--------12----------------------------|
C|-/14~----15-14-12-14~----14-15---------14-15----15~--14-12----12~----------|
G|-----------------------------------------------------------15--------------|
D|---------------------------------------------------------------------------|

d|---------------------------------------------------------------------------|
A|---------------------------------------------------------------------------|
F|----------14-12------------------------------------------9~----------------|
C|-12-14-15-------15-141514----121412----101210----9109----------------------|
G|--------------------------17--------15--------14------12-------------------|
D|---------------------------------------------------------------------------|

d|---------------------------------------------------------------------------|
A|---------------------------------------------------------------------------|
F|-------------------------------14-12~--------12----------------------------|
C|-/14~----15-14-12-14~----14-15---------14-15----15~--14-12----12~----------|
G|-----------------------------------------------------------15--------------|
D|---------------------------------------------------------------------------|

d|---------------------------------------------------------------------------|
A|---------------------------------------------------------------------------|
F|----------14-12----12------------------------------------------------------|
C|-12-14-15-------15----15-14-15-14-12-14-12----12~--------------------------|
G|-------------------------------------------15------------------------------|
D|---------------------------------------------------------------------------|

d|---------------------------------------------------------------------------|
A|---------------------------------------------------------------------------|
F|-------------------------------14-12~--------12----------------------------|
C|-/14~----15-14-12-14~----14-15---------14-15----15~--14-12----12~----------|
G|-----------------------------------------------------------15--------------|
D|---------------------------------------------------------------------------|

d|---------------------------------------------------------------------------|
A|---------------------------------------------------------------------------|
F|----------14-12------------------------------------------------------------|
C|-12-14-15-------15-141514----121412----101210----9109----------------------|
G|--------------------------17--------15--------14------12-------------------|
D|---------------------------------------------------------------------------|

INTERLUDE 2

d|---------------------------------------------------------------------------|
A|---------------------------------------------------------------------------|
F|---------------------------------------------------------------------------|
C|-8----8----8----8----8----8----8----8----8----8----8----8------------------|
G|---10---10---10---10---10---10---10---10---10---10---10---10---------------|
D|------------------------------------- -------------------------------------|

d|---------------------------------------------------------------------------|
A|---------------------------------------------------------------------------|
F|---------------------------------------------------------------------------|
C|-10----10----10----10----10----10----10----10----10----10----10----10------|
G|----12----12----12----12----12----12----12----12----12----12----12----12---|
D|------------------------------------- -------------------------------------|

d|---------------------------------------------------------------------------|
A|---------------------------------------------------------------------------|
F|---------------------------------------------------------------------------|
C|-12----12----12----12----12----12----12----12----12----12----12----12------|
G|----13----13----13----13----13----13----13----13----13----13----13----13---|
D|------------------------------------- -------------------------------------|

d|---------------------------------------------------------------------------|
A|---------------------------------------------------------------------------|
F|---------------------------------------------------------------------------|
C|-14----14----14----14----14----14----14----14----14----14----14----14------|
G|----15----15----15----15----15----15----15----15----15----15----15----15---|
D|------------------------------------- -------------------------------------|

d|---------------------------------------------------------------------------|
A|---------------------------------------------------------------------------|
F|---------------------------------------------------------------------------|
C|-8----8----8----8----8----8----8----8----8----8----8----8------------------|
G|---10---10---10---10---10---10---10---10---10---10---10---10---------------|
D|------------------------------------- -------------------------------------|

d|---------------------------------------------------------------------------|
A|---------------------------------------------------------------------------|
F|---------------------------------------------------------------------------|
C|-10----10----10----10----10----10----10----10----10----10----10----10------|
G|----12----12----12----12----12----12----12----12----12----12----12----12---|
D|------------------------------------- -------------------------------------|

d|---------------------------------------------------------------------------|
A|---------------------------------------------------------------------------|
F|---------------------------------------------------------------------------|
C|-12----12----12----12----12----12----12----12----12----12----12----12------|
G|----13----13----13----13----13----13----13----13----13----13----13----13---|
D|------------------------------------- -------------------------------------|

d|---------------------------------------------------------------------------|
A|---------------------------------------------------------------------------|
F|---------------------------------------------------------------------------|
C|-14----14----14----14----14----14----14----14----14----14----14----14------|
G|----15----15----15----15----15----15----15----15----15----15----15----15---|
D|------------------------------------- -------------------------------------|

d|---------------------------------------------------------------------------|
A|---------------------------------------------------------------------------|
F|-10----10----10----10----10----10----10----10----10----10----10----10------|
C|----12----12----12----12----12----12----12----12----12----12----12----12---|
G|---------------------------------------------------------------------------|
D|------------------------------------- -------------------------------------|

d|---------------------------------------------------------------------------|
A|---------------------------------------------------------------------------|
F|-12----12----12----12----12----12----12----12----12----12----12----12------|
C|----14----14----14----14----14----14----14----14----14----14----14----14---|
G|---------------------------------------------------------------------------|
D|------------------------------------- -------------------------------------|

d|---------------------------------------------------------------------------|
A|---------------------------------------------------------------------------|
F|-14----14----14----14----14----14----14----14----14----14----14----14------|
C|----15----15----15----15----15----15----15----15----15----15----15----15---|
G|---------------------------------------------------------------------------|
D|------------------------------------- -------------------------------------|

d|---------------------------------------------------------------------------|
A|---------------------------------------------------------------------------|
F|-16----16----16----16----16----16----16----16----16----16----16----16------|
C|----17----17----17----17----17----17----17----17----17----17----17----17---|
G|---------------------------------------------------------------------------|
D|------------------------------------- -------------------------------------|

d|---------------------------------------------------------------------------|
A|---------------------------------------------------------------------------|
F|-10----10----10----10----10----10----10----10----10----10----10----10------|
C|----12----12----12----12----12----12----12----12----12----12----12----12---|
G|---------------------------------------------------------------------------|
D|------------------------------------- -------------------------------------|

d|---------------------------------------------------------------------------|
A|---------------------------------------------------------------------------|
F|-12----12----12----12----12----12----12----12----12----12----12----12------|
C|----14----14----14----14----14----14----14----14----14----14----14----14---|
G|---------------------------------------------------------------------------|
D|------------------------------------- -------------------------------------|

d|---------------------------------------------------------------------------|
A|---------------------------------------------------------------------------|
F|-14----14----14----14----14----14----14----14----14----14----14----14------|
C|----15----15----15----15----15----15----15----15----15----15----15----15---|
G|---------------------------------------------------------------------------|
D|------------------------------------- -------------------------------------|

d|---------------------------------------------------------------------------|
A|--------------------------------------10---10---10---10---10---10----------|
F|-16----16----16----16----16----16-----9----9----9----9----9----9-----------|
C|----17----17----17----17----17----17--7----7----7----7----7----7-----------|
G|--------------------------------------0----0----0----0----0----0-----------|
D|------------------------------------- -------------------------------------|

INTERLUDE 3

d|---------------------------------------------------------------------------|
A|---------------------------------------------------------------------------|
F|---------------------------------------------------------------------------|
C|-------------3-5-3---------------------------3-5-3-----3-------5-----------|
G|---6-5-3-5-6-------6-5-3-5-3-3-6---6-5-3-5-6-------6-5---6-5-3-------------|
D|-3-------------------------------3-----------------------------------------|

d|---------------------------------------------------------------------------|
A|---------------------------------------------------------------------------|
F|---------------------------------------------------------------------------|
C|-------------5-7-5---------------------------5-7-5-----5-------7-----------|
G|---8-7-5-7-8-------8-7-5-7-5-5-8---8-7-5-7-8-------8-7---8-7-5-------------|
D|-5-------------------------------5-----------------------------------------|

d|---------------------------------------------------------------------------|
A|---------------------------------------------------------------------------|
F|---------------------------------------------------------------------------|
C|-------------3-5-3---------------------------3-5-3-----3-------5-----------|
G|---6-5-3-5-6-------6-5-3-5-3-3-6---6-5-3-5-6-------6-5---6-5-3-------------|
D|-3-------------------------------3-----------------------------------------|

d|---------------------------------------------------------------------------|
A|---------------------------------------------------------------------------|
F|---------------------------------------------------------------------------|
C|-------------5-7-5---------------------------5-7-5-----5-------7-----------|
G|---8-7-5-7-8-------8-7-5-7-5-5-8---8-7-5-7-8-------8-7---8-7-5-------------|
D|-5-------------------------------5-----------------------------------------|

BREAK

d|---------------------------------------------------------------------------|
A|---------------------------------------------------------------------------|
F|---------------------------------------------------------------------------|
C|---------------------------------------------------------------------------|
G|-8-8-8-8-8-8-8-8-8-7-7-7-7-7-7-7-8-8-8-8-8-8-8-8-8-7-7-7-7-7-7-7-----------|
D|-5-5-5-5-5-5-5-5-5-5-5-5-5-5-5-5-5-5-5-5-5-5-5-5-5-5-5-5-5-5-5-5-----------|

d|---------------------------------------------------------------------------|
A|---------------------------------------------------------------------------|
F|---------------------------------------------------------------------------|
C|---------------------------------------------------------------------------|
G|-8-8-8-8-8-8-8-8-8-7-7-7-7-7-7-7-8-8-8-8-8-8-8-8-8-7-7-7-7-7-7-7-----------|
D|-6-6-6-6-6-6-6-6-6-6-6-6-6-6-6-6-6-6-6-6-6-6-6-6-6-6-6-6-6-6-6-6-----------|

d|---------------------------------------------------------------------------|
A|---------------------------------------------------------------------------|
F|---------------------------------------------------------------------------|
C|---------------------------------------------------------------------------|
G|-8-8-8-8-8-8-8-8-8-7-7-7-7-7-7-7-8-8-8-8-8-8-8-8-8-7-7-7-7-7-7-7-----------|
D|-5-5-5-5-5-5-5-5-5-5-5-5-5-5-5-5-5-5-5-5-5-5-5-5-5-5-5-5-5-5-5-5-----------|

d|---------------------------------------------------------------------------|
A|---------------------------------------------------------------------------|
F|---------------------------------------------------------------------------|
C|---------------------------------------------------------------------------|
G|-8-8-8-8-8-8-8-8-8-7-7-7-7-7-7-7-8-8-8-8-8-8-8-8-10-10-10-10---------------|
D|-6-6-6-6-6-6-6-6-6-6-6-6-6-6-6-6-6-6-6-6-6-6-6-6-8--8--8--8----------------|

VERSE

d|-------------------------------------------------------------------------------------------------------------|
A|-------------------------------------------------------------------------------------------------------------|
F|-------------------------------------------------------------------------------------------------------------|
C|-------------------------------------------------------------------------------------------------------------|
G|-8-8-8-8-8-8-8-8-8-8-8-8-7-7-7-7-7-7-7-7-7-7-7-7-8-8-8-8-8-8-8-8-8-8-8-8-7-7-7-7-7-7-7-7-7-7-7-7-------------|
D|-5-5-5-5-5-5-5-5-5-5-5-5-5-5-5-5-5-5-5-5-5-5-5-5-5-5-5-5-5-5-5-5-5-5-5-5-5-5-5-5-5-5-5-5-5-5-5-5-------------|

d|-------------------------------------------------------------------------------------------------------------|
A|-------------------------------------------------------------------------------------------------------------|
F|-------------------------------------------------------------------------------------------------------------|
C|-------------------------------------------------------------------------------------------------------------|
G|-8-8-8-8-8-8-8-8-8-8-8-8-7-7-7-7-7-7-7-7-7-7-7-7-8-8-8-8-8-8-8-8-8-8-8-8-10-10-10-10-10-10-10-10-10-10-10-10-|
D|-6-6-6-6-6-6-6-6-6-6-6-6-6-6-6-6-6-6-6-6-6-6-6-6-6-6-6-6-6-6-6-6-6-6-6-6-8--8--8--8--8--8--8--8--8--8--8--8--|

CHORUS 2

e|------------------------------------------------------------------------------------------------------------|
B|------------------------------------------------------------------------------------------------------------|
G|-------9------7-7-7-10-10-10-------9-----------------------9-----7-7-7-10-10-10-------9---------------------|
D|------------------------------------------------------------------------------------------------------------|
A|-------7------5-5-5-8--8--8--------7-----7-7-7-9-7-9-------7-----5-5-5-8--8--8--------7------7-7-7-9-7-9----|
E|-0---------------------------0-----------5-5-5-7-5-7-0--------------------------0------------5-5-5-7-5-7----|

CHORUS 1

d|---------------------------------------------------------------------------------------------------------|
A|---------------------------------------------------------------------------------------------------------|
F|---------------------------------------------------------------------------------------------------------|
C|-------9-----7-----12-10-9-------9-----7-----------------9-----7-----12-10-9-------9-----7---------------|
G|-------7-----5-----10-8--7-------7-----5-----7-7-9-------7-----5-----10-8--7-------7-----5-----7-7-9-----|
D|-0-0-0---0-0---0-0---------0-0-0---0-0---0-0-5-5-7-0-0-0---0-0---0-0---------0-0-0---0-0---0-0-5-5-7-----|

d|---------------------------------------------------------------------------------------------------------|
A|---------------------------------------------------------------------------------------------------------|
F|---------------------------------------------------------------------------------------------------------|
C|-------9-----7-----12-10-9-------9-----7-----------------9-----7-----12-10-9-------9-----7---------------|
G|-------7-----5-----10-8--7-------7-----5-----7-7-9-------7-----5-----10-8--7-------7-----5-----7-7-9-----|
D|-0-0-0---0-0---0-0---------0-0-0---0-0---0-0-5-5-7-0-0-0---0-0---0-0---------0-0-0---0-0---0-0-5-5-7-----|

OUTRO

d|---------------------------------------------------------------------------------------------------------|
A|---------------------------------------------------------------------------------------------------------|
F|---------------------------------------------------------------------------------------------------------|
C|-------9------------7------------10-----------5------------9------------7------------10-----------5------|
G|-------7------------5------------8------------3------------7------------5------------8------------3------|
D|-0-0-0--------0-0-0--------0-0-0--------0-0-0--------0-0-0--------0-0-0--------0-0-0--------0-0-0--------|

d|---------------------------------------------------------------------------------------------------------|
A|---------------------------------------------------------------------------------------------------------|
F|-------9------------7------------10-----------5------------9------------7------------10-----------5------|
C|---------------------------------------------------------------------------------------------------------|
G|-------7------------5------------8------------3------------7------------5------------8------------3------|
D|-0-0-0--------0-0-0--------0-0-0--------0-0-0--------0-0-0--------0-0-0--------0-0-0--------0-0-0--------|

d|---------------------------------------------------------------------------------------------------------|
A|---------------------------------------------------------------------------------------------------------|
F|-------9------------7------------10-----------5------------2---------------------------------------------|
C|-------9------------7------------10-----------5------------2---------------------------------------------|
G|-------7------------5------------8------------3------------0---------------------------------------------|
D|-0-0-0-7------0-0-0-5------0-0-0-8------0-0-0-3------0-0-0-0---------------------------------------------|

************************************

| /   slide up
| \   slide down
| h   hammer-on
| p   pull-off
| ~   vibrato
| +   harmonic
| x   Mute note
| b   Bend
| pb  Pre-bend
| br  Bend release
| pbr Pre-bend release
| brb Bend release bend

************************************
 
 
Blizzard At Sea - Simulacra :: indexed at Ultimate Guitar.
Simulacra tabs @ 911Tabs
People who played Blizzard At Sea - Simulacra also played these songs by Blizzard At Sea:
Simulacra Tab, Simulacra Tab, Simulacra

Quick tip, so you can enjoy Simulacra even more:

After the registration (which takes just 10 seconds, remember?) you will be able to use your profile - your very own piece of YourChords.com.

Show us your talent, perform Simulacra!

Here you can post a video or audio performance. Tell me more ...
Where can we find your performance? Tell me more ...
Your comment:
Please, log in to post your performance.