Artists by letter: A B C D E F G H I J K L M N O P Q R S T U V W X Y Z 0-9

 
Misery Business Tab
                 Misery Business- Paramore

*updated-lead solo 16th March*

guitar 1- lead
guitar 2- Rythem

(0:14) INTRO -[Guitar 1] 
||------------------------|-------------------------|
||--10-10--10-------------|--9-9--9-9-9-------------|
||------------------------|-------------------------|
||--7--7---7---9-11--9-11-|--6-6--6-6-6-------------|
||------------------------|-------------------------|
||------------------------|-------------------------|

||------------------------|-------------------------|
||--10-10--10-------------|-------------------------|
||------------------------|--9-9-9-9-9-------------|
||--7--7---7---9-11--9-11-|-------------------------|
||------------------------|--7-7--7-7-7-------------|
||------------------------|-------------------------|

||------------------------|-------------------------|
||--10-10--10-------------|--9-9--9-9-9-------------|
||------------------------|-------------------------|
||--7--7---7---9-11--9-11-|--6-6--6-6-6-------------|
||------------------------|-------------------------|
||------------------------|-------------------------|

||-------------------------|-------------------------|
||--10-10--10--------------|-------------------------|
||-------------------------|--------------6--9--9----|
||--7--7---7---9-11--9-11--|-------7--9--------------|
||-------------------------|--7--9-------------------|
||-------------------------|-------------------------|

(0:14) INTRO -[Guitar 2]
||-----------------|-----------------|-----------------|-----------------|
||-----------------|-----------------|-----------------|-----------------|
||-----------------|-----------------|-----------------|-----------------|
||-4-4---4---------|-2-2---2-2-2---2-|-4-4---4---------|-0-0---0-0-0---0-|
||-4-4---4-2-4-2-4-|-2-2---2-2-2---2-|-4-4---4-2-4-2-4-|-0-0---0-0-0---0-|
||-4-4---4---------|-2-2---2-2-2---2-|-4-4---4---------|-0-0---0-0-0---0-|

||-----------------|-----------------|-----------------|-----------------|
||-----------------|-----------------|-----------------|-----------------|
||-----------------|-----------------|-----------------|-----------------|
||-4-4---4---------|-2-2---2-2-2---2-|-4-4---4---------|-9-9-9-9-7-7-7-7-|
||-4-4---4-2-4-2-4-|-2-2---2-2-2---2-|-4-4---4-2-4-2-4-|-9-9-9-9-7-7-7-7-|
||-4-4---4---------|-2-2---2-2-2---2-|-4-4---4---------|-9-9-9-9-7-7-7-7-|

(0:25) VERSE (Palm muted) - Play x2 [Guitar 2]
||-----------------|-----------------|-----------------|-----------------|
||-----------------|-----------------|-----------------|-----------------|
||-----------------|-----------------|-----------------|-----------------|
||-4-4---4---------|-2-2---2-2-2---2-|-4-4---4---------|-0-0---0-0-0---0-|
||-4-4---4-2-4-2-4-|-2-2---2-2-2---2-|-4-4---4-2-4-2-4-|-0-0---0-0-0---0-|
||-4-4---4---------|-2-2---2-2-2---2-|-4-4---4---------|-0-0---0-0-0---0-|

||-----------------|-----------------|-----------------|-----------------|
||-----------------|-----------------|-----------------|-----------------|
||-----------------|-----------------|-----------------|-----------------|
||-4-4---4---------|-2-2---2-2-2---2-|-4-4---4---------|-9-9-9-9-7-7-7-7-|
||-4-4---4-2-4-2-4-|-2-2---2-2-2---2-|-4-4---4-2-4-2-4-|-9-9-9-9-7-7-7-7-|
||-4-4---4---------|-2-2---2-2-2---2-|-4-4---4---------|-9-9-9-9-7-7-7-7-|

(0:25) VERSE (Palm muted) - [Guitar 1]
||-----------------|-----------------|-----------------|-----------------|
||-----------------|-----------------|-----------------|-----------------|
||-----------------|-----------------|-----------------|-----------------|
||-4-4---4---------|-2-2---2-2-2---2-|-4-4---4---------|-0-0---0-0-0---0-|
||-4-4---4-2-4-2-4-|-2-2---2-2-2---2-|-4-4---4-2-4-2-4-|-0-0---0-0-0---0-|
||-4-4---4---------|-2-2---2-2-2---2-|-4-4---4---------|-0-0---0-0-0---0-|

||-----------------|-----------------|-----------------|-----------------|
||-----------------|-----------------|-----------------|-----------------|
||-----------------|-----------------|-----------------|-----------------|
||-4-4---4---------|-2-2---2-2-2---2-|-4-4---4---------|-9-9-9-9-7-7-7-7-|
||-4-4---4-2-4-2-4-|-2-2---2-2-2---2-|-4-4---4-2-4-2-4-|-9-9-9-9-7-7-7-7-|
||-4-4---4---------|-2-2---2-2-2---2-|-4-4---4---------|-9-9-9-9-7-7-7-7-|

(0:36) - [Guitar 1]
||-------------------------|-------------------------|
||--7-----7--7-7-7-10-7-10-|--7-----7--7-7-7-10-7-10-|
||-------------------------|-------------------------|
||-------------------------|-------------------------|
||-------------------------|-------------------------|
||-------------------------|-------------------------|

||-------------------------|-------------------------|
||--7-----7--7-7-7-10-7-10-|--7-----7--7-7-7-5--5--5-|
||-------------------------|-------------------------|
||-------------------------|-------------------------|
||-------------------------|-------------------------|
||-------------------------|-------------------------|

||-------------------------|-------------------------|
||--7-----7--7-7-7-10-7-10-|--7-----7--7-7-7-10-7-10-|
||-------------------------|-------------------------|
||-------------------------|-------------------------|
||-------------------------|-------------------------|
||-------------------------|-------------------------|

||-------------------------|--7-----7--7-7-7/9--9----|
||--7-----7--7-7-7-10-7-10-|-------------------------|
||-------------------------|-------------------------|
||-------------------------|-------------------------|
||-------------------------|-------------------------|
||-------------------------|-------------------------|

(0:47) PRE-CHORUS (Palm muted)[Both Guitars]
||-----------------|-----------------|
||-----------------|-----------------|
||-----------------|-----------------|
||-4-4-4-4-4-4-4-4-|-2-2-2-2-2-------|
||-4-4-4-4-4-4-4-4-|-2-2-2-2-2-------|
||-4-4-4-4-4-4-4-4-|-2-2-2-2-2-------|

(0:50) CHORUS PT. 1 - Play x2 [Both guitars]
||-----------------------------------------------------|
||-----------------------------------------------------|
||--6-6-6-6-6-------------8-8-8-8-8--10-10-10--8-8-8---|
||--6-6-6-6-6--6-6-6-6-6--8-8-8-8-8--10-10-10--8-8-8---|
||--4-4-4-4-4--6-6-6-6-6--6-6-6-6-6--8--8--8---6-6-6---|
||-------------6-6-6-6-6-------------------------------|

(1:01) CHORUS PT. 2 - play x2 [Both Guitars]
||-------------------------------------------------------------|
||-------------------------------------------------------------|
||---6--6--6--6--6--6--6---------8--8--8--8--8--8--8--10-10-10-|
||---6--6--6--6--6--6--6--6-6-6--8--8--8--8--8--8--8--10-10-10-|
||---4--4--4--4--4--4--4--6-6-6--6--6--6--6--6--6--6--8--8--8--|
||------------------------6-6-6--------------------------------|

(1:12) POST-CHORUS [guitar 1]
||------------------------|-------------------------|
||--10-10--10-------------|--9-9--9-9-9-------------|
||------------------------|-------------------------|
||--7--7---7---9-11--9-11-|--6-6--6-6-6-------------|
||------------------------|-------------------------|
||------------------------|-------------------------|

||------------------------|------------------------|
||--10-10--10-------------|------------------------|
||------------------------|--9--9-9-9-------------|
||--7--7---7---9-11--9-11-|------------------------|
||------------------------|--7--7--7-7-------------|
||------------------------|------------------------|

(1:12) POST-CHORUS [guitar 2]
||-----------------|-----------------|-----------------|--------------|
||-----------------|-----------------|-----------------|--------------|
||-----------------|-----------------|-----------------|--------------|
||-4-4---4---------|-2-2---2-2-2---2-|-4-4---4---------|-0-0---0-0-0--|
||-4-4---4-2-4-2-4-|-2-2---2-2-2---2-|-4-4---4-2-4-2-4-|-0-0---0-0-0--|
||-4-4---4---------|-2-2---2-2-2---2-|-4-4---4---------|-0-0---0-0-0--|

(1:17) VERSE
(1:40) PRE-CHORUS
(1:43) CHORUS PT. 1
(1:54) CHORUS PT. 2

(2:05) BRIDGE - Play x4 [Guitar 1]
||-----------------|-----------------|-----------------|-----------------|
||-----------------|-------------0---|-------------0---|-----------------|
||-------9-----6---|-------9---------|-------9---------|-----------------|
||-----7-----------|-----7-----------|-----7-----------|---------7-------|
||-----------------|-----------------|-----------------|-----------------|
||-----------------|-----------------|-----------------|-----------------|

(2:05) BRIDGE - Play x4 [Guitar2]
||-----------------|-----------------|-----------------|-----------------|
||-----------------|-----------------|-----------------|-----------------|
||-6~--------------|-----------------|-8~--------------|-10~-----8~------|
||-6~--------------|-6~--------------|-8~--------------|-10~-----8~------|
||-4~--------------|-6~--------------|-6~--------------|-8~------6~------|
||-----------------|-6~--------------|-----------------|-----------------|

(2:27) SOLO PT. 1 - Play x2 [Guitar 1]
||--------------------------|--------------------------|
||--------------------------|--------------------------|
||--9--11-11-11-11-11-11-11-|--9--11-11-11-11-11-11-11-|
||--------------------------|--------------------------|
||--7--9--9--9--9--9--9--9--|--7--9--9--9--9--9--9--9--|
||--------------------------|--------------------------|

||--------------------------|-------------------------|
||--------------------------|-15-15-15-15-14-14-14-14-|
||--9--11-11-11-11-11-11-11-|-------------------------|
||--------------------------|-12-12-12-12-11-11-11-11-|
||--7--9--9--9--9--9--9--9--|-------------------------|
||--------------------------|-------------------------|

(2:27) SOLO PT. 1 - Play x2 [Guitar 2]
||-----------------------------------------------------|
||-----------------------------------------------------|
||--6-6-6-6-6-------------8-8-8-8-8--10-10-10--8-8-8---|
||--6-6-6-6-6--6-6-6-6-6--8-8-8-8-8--10-10-10--8-8-8---|
||--4-4-4-4-4--6-6-6-6-6--6-6-6-6-6--8--8--8---6-6-6---|
||-------------6-6-6-6-6-------------------------------|

(2:38) SOLO PT. 2 [Guitar 1]
||-------------------------|-------------------------|
||-17-17-17-17-17-17-17-17-|-15-15-15-15-15-15-15-15-|
||-------------------------|-------------------------|
||-14-14-14-14-14-14-14-14-|-12-12-12-12-12-12-12-12-|
||-------------------------|-------------------------|
||-------------------------|-------------------------|

||-------------------------|-------------------------|
||-14-14-14-14-14-14-14-14-|-12-12-12-12-12-12-12-12-|
||-------------------------|-------------------------|
||-11-11-11-11-11-11-11-11-|--9--9--9--9--9--9--9--9-|
||-------------------------|-------------------------|
||-------------------------|-------------------------|

||-------------------------|-------------------------|
||-17-17-17-17-17-17-17-17-|-19-19-19-19-19-19-19-19-|
||-------------------------|-------------------------|
||-14-14-14-14-14-14-14-14-|-16-16-16-16-16-16-16-16-|
||-------------------------|-------------------------|
||-------------------------|-------------------------|

||-------------19-19-21-21-|-------------------------|
||-22-22-22-22-------------|-21-21-21-21-21----------|
||-------------16-16-18-18-|-------------------------|
||-19-19-19-19-------------|-18-18-18-18-18----------|
||-------------------------|-------------------------|
||-------------------------|-------------------------|

(2:38) SOLO PT. 2 - Play x2 [Guitar 2]
||-----------------------------------------------------|
||-----------------------------------------------------|
||--6-6-6-6-6-------------8-8-8-8-8--10-10-10--8-8-8---|
||--6-6-6-6-6--6-6-6-6-6--8-8-8-8-8--10-10-10--8-8-8---|
||--4-4-4-4-4--6-6-6-6-6--6-6-6-6-6--8--8--8---6-6-6---|
||-------------6-6-6-6-6-------------------------------|

(2:55) CHORUS PT. 1
(3:06) CHORUS PT. 2
(3:17) POST-CHORUS x2

you can also copy and paste this into a word document if you want it works on size 8 font
pretty easy song to play once you get everything sorted out.
hope you like it!!! enjoy!!!
email me at [email protected] if i've made an error

 
 
Paramore - Misery Business Tab :: indexed at Ultimate Guitar.
Misery Business tabs @ 911Tabs

About the artist behind Misery Business Tab:

Paramore (IPA: /'pærəmɔər/) is an American rock band that formed in Franklin, Tennessee in 2004 consisting of Hayley Williams (lead vocals/keyboard), Josh Farro (lead guitar/backing vocals), Jeremy Davis (bass guitar), and Zac Farro (drums). The group released their debut album All We Know Is Falling in 2005, and their second album Riot! in 2007, which was certified gold in the US and the UK.

Indexed at Wikipedia.

Show us your talent, perform Misery Business Tab!

Here you can post a video or audio performance. Tell me more ...
Where can we find your performance? Tell me more ...
Your comment:
Please, log in to post your performance.