Artists by letter: A B C D E F G H I J K L M N O P Q R S T U V W X Y Z 0-9

 
New Clear
Tuning D#A#D#G#B#e# (Drop D+Half Step Down)

4/4 Time Signature
[Intro] and [Verse]
e#|--13---13---13---13--|
B#|--10---10---10---10--|
G#|--10---10---10---10--|
D#|---------------------|
A#|---------------------|
D#|---------------------|

e#|----------------------------|
B#|----------------------------|
G#|--12---12---12---12--xxxxxx-|
D#|--12---12---12---12--xxxxxx-|
A#|--10---10---10---10--xxxxxx-|
D#|----------------------------|

[Chorus]
E#|-----------------|
B#|-----------------|
G#|-----------------|
D#|---3p0-----------|
A#|----------5p0----|
D#|-------0------0--|

**********************

| h  hammer-on
| p  pull-off
| x  Mute note

**********************
 
 
Wakrat - New Clear :: indexed at Ultimate Guitar.
New Clear tabs @ 911Tabs
People who played Wakrat - New Clear also played these songs by Wakrat:
Generation Fucked

Quick tip, so you can enjoy New Clear even more:

Try out the AutoScroller option ... It scrolls the page for you, so you can totally focus on nailing that solo. You can choose among different speeds using your mouse or your keyboard (keys 0, 1, 2 and 3).

Show us your talent, perform New Clear!

Here you can post a video or audio performance. Tell me more ...
Where can we find your performance? Tell me more ...
Your comment:
Please, log in to post your performance.