Artists by letter: A B C D E F G H I J K L M N O P Q R S T U V W X Y Z 0-9

 
If I Were Me
http://www.soundcitymovie.com

Tabbed by: Eric

Intro         
e|--------------------------------------------------------------|
B|----------------------------------------------------------|
G|----------------------------------------------|
D|--------------------------------------------------------------|
A|------------9--------------9--------------9-------------------|
E|--0------/7---7--0------/7---7--0------/7---7--0--------------|

Verse (0:10)
e|--------------------------------------------------------------|
B|--------------------------------------------------------------|
G|----------------------------------------------|
D|--------------------------------------------------------------|
A|------------9--------------9--------------9--------------9----|
E|--0------/7---7--0------/7---7--0------/7---7--0------/7---7--|

e|--------------------------------------------------------------|
B|----------------------------------------------------------|
G|-------------------7--------------------------|
D|------------9-------------------------------------------------|
A|--0------/7---7--0------/7--------------9--------------5h7----|
E|------------------------------0------/7---7--0------/7--------|

Chorus (0:52)
e|----3----------0-----------------------3----------------------|
B|----1----------1-----------8-----------3----------------------|
G|----0----------2-----------9-----------0----------------------|
D|----2----5h7---2-----------9----------------------------------| x2
A|--3---/7-----0------5------7----5h7---------5h7---------------|
E|-----------------/7---7--0---/7------3---/7-------------------|

(1:14)
e|----3----------0-0--------------------------------------------|
B|----1----------1-0--------------------------------------------|
G|----0----------2-2--------------------------------------------|
D|----2----5h7---2-2--------------------------------------------|
A|--3---/7-----0------------------------------------------------|
E|--------------------------------------------------------------|

Intro (1:19)

Verse (1:30)
  
  Chorus (2:11)

Solo (2:38)
  Guitar 1
e|--------------------------------------------------------------|
B|-----------------------------8--------------------------------|
G|----------------7--9----9-11----------------------------------|
D|-----5--5---5h7------7----------------------------------------|
A|--/7------7---------------------------------------------------|
E|--------------------------------------------------------------|

Guitar 2 plays the intro under the solo

Chorus (2:58) - play the first part 3 times instead of 2

Outro (3:34)
e|--------------------------------------------------------------|
B|--------------------------------------------------------------|
G|----------------------------------------------|
D|--------------------------------------------------------------|
A|------------9--------------9--------------9-------------5h7---|
E|--0------/7---7--0------/7---7--0------/7---7--0-----/7-------|

(3:44)
e|--------------------------------------------------------------|
B|------------------------------------------------------|
G|----------------------------------------------|
D|--------------------------------------------------------------|
A|------------9--------------9--------------9-------------5h7---|
E|--0------/7---7--0------/7---7--0------/7---7--0-----/7-------|
  
  (3:54)
e|--------------------------------------------------------------|
B|------------------------------------------------------|
G|------------------------------------------------------|
D|--------------------------------------------------------------|
A|-------5h7-------5h7-------5h7-----------5-7------------------|
E|--0-/7------0-/7------0-/7------0------7------0---------------|
 
 
The Sound City Players - If I Were Me :: indexed at Ultimate Guitar.
If I Were Me tabs @ 911Tabs

Quick tip, so you can enjoy If I Were Me even more:

If you don't really know how to deal with "Absus4" chord and his equally confusing brothers, just put the mouse cursor over them and you will be shown a helpful chord diagram.

Show us your talent, perform If I Were Me!

Here you can post a video or audio performance. Tell me more ...
Where can we find your performance? Tell me more ...
Your comment:
Please, log in to post your performance.