Artists by letter: A B C D E F G H I J K L M N O P Q R S T U V W X Y Z 0-9

 
Lover Tab
               Verse
e|----------------------------------|
B|----------------------------------|
G|----------------------------------|x8 ''plam mute''
D|---5-5-5--7-7-7--0-0-0--9--9--9---|
A|---7-7-7--9-9-9--0-0-0--10-10-10--|
E|----------------------------------|

Chorus-D G Bm A

D                 G                      Bm
you can find me here my head against the wall

             A                    D
lost in my regret and everytime I fall

      G                Bm            A
you catch me in your hands you cicle me like a wedding band

Verse

e|----------------------------------|
B|----------------------------------|
G|----------------------------------|x8 ''plam mute''
D|---5-5-5--7-7-7--0-0-0--9--9--9---|
A|---7-7-7--9-9-9--0-0-0--10-10-10--|
E|----------------------------------|

Chorus-D G Bm A

D                 G                      Bm
you can find me here my head against the wall

             A                    D
lost in my regret and everytime I fall

      G                Bm            A                   D
you catch me in your hands you cicle me like a wedding band

                 G                    Bm                A
a promise from heaven a promise from you a promise to love


I will hold on to


Brigde- play through 4x

e|-----------------------------|
B|-----------------------------|
G|-----------------------------|
D|--5-5-5-5--5-5-5-5--5-5-5-5--|
A|--5-5-5-5--5-5-5-5--5-5-5-5--|
E|--3-3-3-3--3-3-3-3--3-3-3-3--|

e|-----------------------------|
B|-----------------------------|
G|-----------------------------|
D|--7-7-7-7--7-7-7-7--7-7-7-7--|
A|--7-7-7-7--7-7-7-7--7-7-7-7--|
E|--5-5-5-5--5-5-5-5--5-5-5-5--|

e|-----------------------------|
B|-----------------------------|
G|-----------------------------|
D|--9-9-9-9--9-9-9-9--9-9-9-9--|
A|--9-9-9-9--9-9-9-9--9-9-9-9--|
E|--7-7-7-7--7-7-7-7--7-7-7-7--|

e|----------------------------------------|      |----------|
B|----------------------------------------|      |----------|
G|----------------------------------------|      |----------|play on the last
D|--12-12-12-12--12-12-12-12--12-12-12-12-|      |-121212---|time through at
A|--12-12-12-12--12-12-12-12--12-12-12-12-|      |-121212---|the end.
E|--10-10-10-10--10-10-10-10--10-10-10-10-|      |-101010---|


Chorus-D G Bm A

D                 G                      Bm
you can find me here my head against the wall

             A                    D
lost in my regret and everytime I fall

      G                Bm            A                   D D D
you catch me in your hands you cicle me like a wedding band


I hope you like... I will have the solo on here later but for now you can learn the 
song. This is one of the best songs on the new album. If any questions please let me know... 
always want feed back so let me know what you think

 
 
Nevertheless - Lover Tab :: indexed at Ultimate Guitar.
Lover tabs @ 911Tabs

About the artist behind Lover Tab:

Nevertheless is a Christian power-pop band from Chattanooga, Tennessee. Their song "Live Like We're Alive" reached the top 5 of the R&R Christian Rock Chart.[1], Their song "The Real," was played on Contemporary Christian Music radio stations, peaking in the Top 10 on radio stations thoroughout the United States.[2]

The band has toured with many other contemporaries from the Christian rock scene, including Superchick, Skillet, Hawk Nelson, Falling Up, and Number One Gun.

Indexed at Wikipedia.

Show us your talent, perform Lover Tab!

Here you can post a video or audio performance. Tell me more ...
Where can we find your performance? Tell me more ...
Your comment:
Please, log in to post your performance.