Artists by letter: A B C D E F G H I J K L M N O P Q R S T U V W X Y Z 0-9

 
Us-Studie
Intro + Verse           Pre-Chorus              Chorus                  Outro
-------------------     -------------------     -------------------     -------------------
F#m  x-9-11-11-10-x     F#m  x-9-11-11-10-x     A    57765x             A    57765x
Bm   799777             D   10-12-12-11-x-x     G#   46654x             B    79987x
D    x5777x             E    0-14-14-13-x-x     E    x7999x             F#m  x-9-11-11-10-x
C#   x4666x                                     F#m  x-9-11-11-10-x     C#m  9-11-11-9-9-x  
                                                                        C#   9-11-11-10-9-x


[Intro]

Guitar 1:
   F#
e|-----------------|-----------------|-----------------|-----------------| |
B|-5h7-7-7---------|-5h7-7-7---------|-5h7-7-7---------|-5h7-7-7---------| |
G|-----6-6---------|-----6-6---------|-----6-6---------|-----6-6---------| |
D|-----------------|-----------------|-----------------|-----------------| | 
A|-----------------|-----------------|-----------------|-----------------| |
E|-----------------|-----------------|-----------------|-----------------| |
   "   " '           "   " '           "   " '           "   " '           | 
                                                                           | x2
Guitar 2:                                                                  |
e|---------------9-|---------------9-|---------------9-|---------------9-| |
B|---------10h12---|---------10h12---|---------10h12---|---------10h12---| |
G|-----------------|-----------------|-----------------|-----------------| |
D|-----------------|-----------------|-----------------|-----------------| |
A|-----------------|-----------------|-----------------|-----------------| |
E|-----------------|-----------------|-----------------|-----------------| |
            "    "            "    "            "    "            "    "

"' = strumming pattern
h  = hammer-on

 
Keyboard Riff:
e|--------14-------------------------|-----------------------------------| |
B|------------14------12-------------|---------------------------14------| |
G|----11----------14-----------------|----11--------14--13---------------| |
D|-----------------------------------|-----------------------------------| |
A|-----------------------------------|-----------------------------------| |
E|-----------------------------------|-----------------------------------| |
                                                                           | 
Guitar 2:                                                                  | x2
      F#m             Bm                  D             C#                 |
e|--------------------7--------------|-----------------------------------| |
B|----10--------------7--------------|----7-------------6----------------| |
G|----11--------------7--------------|----7-------------6----------------| |
D|----11--------------9--------------|----7-------------6----------------| |
A|----9---------------9--------------|----5-------------4----------------| |
E|--------------------7--------------|-----------------------------------| |


[Verse 1]
F#m                              F#m
Ja ich hab gemerkt dass sich die Rolltreppe vor lidl
          F#m                           F#m
Seit zwei Tagen noch viel langsamer als sonst dreht
          F#m                                F#m
Und glaub nicht mir sei entgangen dass jeder Döner den ich kaufe
           F#m                        F#m
Schon nach einem Bissen ständig unten aufgeht


[Pre-Chorus 1]
F#m                        D                E
Heute fährt die 18 nur bis Frankfurt an der Oder
F#m                        
Glaube nicht ich hätt' das nicht realisiert
             F#m                         D           E
Quck wie das häßliche Gesicht der gerade abfahrenden U-Bahn
F#m                        
Voller Schadenfreude jubelnd triumphiert


[Chorus 1]
          A       G#
Doch einer neuen US-Studie 
  E                             F#m
Zufolge hast du nichts damit zu tun

(Repeat Keyboard Riff above)


[Verse 2]
    F#m                     F#m
Der gültige Rekord für Dauerniederschlag im Juli
         F#m                          F#m
Wird mit mir als Zeugen gerad' pulverisiert
        F#m                           F#m
Ich überleg ob ich dir schreibe jedes Wort ist TÜV-geprüft
        F#m                    F#m
Und auf eventuelle Folgen präpariert


[Pre-Chorus 2]
      F#m                           D           E
Sähst du mehr aus wie Jesus wär ich ebay-Millionär
           F#m                        
Ich seh in jedem Toastbrot ständig dein Gesicht
              F#m                            D             E
Ich schau dem Typ vom Ordnungsamt nur zwei Sekunden in die Augen
       F#m                        
Und er weiß sofort mein Roller hat kein Licht


[Chorus 2]
          A       G#
Doch einer neuen US-Studie 
  E                             
Zufolge hast du nichts damit zu tun


[Outro]
A   B   F#m  C#m  F#m  C#m  
                       Nichts damit zu tun
A   B   F#m  C#m  F#m  C#m  
                       Nichts damit zu tun
A   B   C#
                       Nichts damit zu tun

(Repeat Keyboard Riff above)


 
 
Von Wegen Lisbeth - Us-Studie :: indexed at Ultimate Guitar.
Us-Studie tabs @ 911Tabs
People who played Von Wegen Lisbeth - Us-Studie also played these songs by Von Wegen Lisbeth:
Bitch Chords, Sushi Chords, Meine Kneipe Chords, Wenn Du Tanzt Chords, Lisa, Der Untergang Des Abendlandes Chords

Quick tip, so you can enjoy Us-Studie even more:

You might want to transpose the song if it is too high or too low for you to sing. Just click the desired option while playing a song and all the chords will automatically be transponded into a new key.

Show us your talent, perform Us-Studie!

Here you can post a video or audio performance. Tell me more ...
Where can we find your performance? Tell me more ...
Your comment:
Please, log in to post your performance.