Artists by letter: A B C D E F G H I J K L M N O P Q R S T U V W X Y Z 0-9

 
Magic Carpet Ride
Magic carpet ride by "The Mighty Dub Katz" ( aka Fatboy Slim )   Tab by Aladin


Bass ( complete song : some variation on the same notes )
      
             

||--------------- |----------------|
||----------------|----------------| 
||----------------|----------------|
||-2---99999------|-2---99999------|




Melody : on trumpet

 
||----------9-9-9-|10---9-------------|--------------9---|10---9----------------|
||----------------|---------12-10---9-|--10-----12-------|---------12-10---12---|
||----------------|-------------------|------------------|----------------------|
||----------------|-------------------|------------------|----------------------| 
||----------------|-------------------|------------------|----------------------|
||----------------|-------------------|------------------|----------------------|



||----------7-7-7-|9---7--------------|--------------7---|9----7----------------|
||----------------|----------10-9---8-|--9------10-------|---------10-9---10----|
||----------------|-------------------|------------------|----------------------|
||----------------|-------------------|------------------|----------------------| 
||----------------|-------------------|------------------|----------------------|
||----------------|-------------------|------------------|----------------------|  repeat
 
 
The Mighty Dub Katz - Magic Carpet Ride :: indexed at Ultimate Guitar.
Magic Carpet Ride tabs @ 911Tabs
People who played The Mighty Dub Katz - Magic Carpet Ride also played these songs by The Mighty Dub Katz:
Magic Carpet Ride Tab

Quick tip, so you can enjoy Magic Carpet Ride even more:

If you spend just 10 seconds to register, you will be able to comment on all the chords and tabs and rate them. You will as well be able to comment on videos of your fellow guitarists and give them ratings from 1 to 5 ... And - of course - you can share your own videos with them and see what they think of you. :)
Click here to join us!

Show us your talent, perform Magic Carpet Ride!

Here you can post a video or audio performance. Tell me more ...
Where can we find your performance? Tell me more ...
Your comment:
Please, log in to post your performance.