Artists by letter: A B C D E F G H I J K L M N O P Q R S T U V W X Y Z 0-9

 
Bag Of Money
This is the song Bag of Money from The Low Life. They're an awesome band...it's a real
they broke up. Anyway, there was no tab up for Bag Of Money, so i decided to tab it out.
also the one who tabbed "Sheen" on this website...i just didn't include and contact 
Anyway, here it is:

Standard Tuning

Intro: Chords:

Dmin     Amin       C       G

|----1--------0-----------------3---------------|
|----3--------1---------1-------3---------------|
|----2--------2---------0-------0---------------|
|----0--------2---------2-------0---------------|
|-----------------------3-----------------------|
|-------------------------------3---------------|

You should be able to fool around with these to find the fills, but here are Evan's parts

Intro (Evan/Rhythm Guitar):

|-------1-------------------------------3---3------|
|-----3----1----1h3p1---1----1----------3---3------|
|---2------2----------2------2----------0---0------|
|-0--------2--2--------------0---0-----------------|
|--------------------------3---x-------------------|
|----------------------------------3--3---3--------|

|-------1--------------------------3-3-------------|
|-----3----1----1h3p1---1----1-----3-3-------------|
|---2------2----------2------2-----0-0-------------|
|-0--------2--2--------------0---0-0-0-------------|
|--------------------------3---x-------------------|
|----------------------------------3-3-------------|
                                   D U

CHORUS:

G         C           Dm    F     G        C             Dm          F
    Let's leave our lives behind, a bag of money and the car's still runnin'

G      C        Dm     F   G       C             Dm       F
    no time for acting shy, losing time with the cop cars coming

Dm     Am      C        G
take a plaaane   to fly away-ay-ay-ay-ay-ay

Dm              Am        C                 G               Dm
and i'll take a traaaain   'cause it leaves today-ay-ay-ay-ay

G      C            Am               Dm       G         Am-------
i'm going away with the girl i robbed today and a bag of money

A Bag of money!!! (end jam)       Dm   Am   C   (sometimes G) listen and you'll hear

That's pretty much it. The chorus is the same everytime...the verse is the same
and the ending jam is just the chords from the intro/verse, just listen for the rhythm. Any
or comments, you can email me at [email protected] Thanks a lot. Hope this is helpful. 
that funk alive!
 
 
The Low Life - Bag Of Money :: indexed at Ultimate Guitar.
Bag Of Money tabs @ 911Tabs
People who played The Low Life - Bag Of Money also played these songs by The Low Life:
Moonshine Tab, Bag Of Money Tab, Four Walls Tab, You Are Everything Tab, You Are Everything Chords, Castaway Tab

Quick tip, so you can enjoy Bag Of Money even more:

Try out the AutoScroller option ... It scrolls the page for you, so you can totally focus on nailing that solo. You can choose among different speeds using your mouse or your keyboard (keys 0, 1, 2 and 3).

Show us your talent, perform Bag Of Money!

Here you can post a video or audio performance. Tell me more ...
Where can we find your performance? Tell me more ...
Your comment:
Please, log in to post your performance.