Artists by letter: A B C D E F G H I J K L M N O P Q R S T U V W X Y Z 0-9

 
Everybody Loves Eileen
Steelheart - Everybody Loves Eileen

Tuning: Eb/ half step down


[Intro/Verse]

Guitar 1
E|---------------------------------------------------|
B|---------------------------------------------------|
G|---------------------------------------------------|
D|--11-------11-------11----12-------12-------12-----|
A|--12-12-12-12-12-12-12-12-12-12-12-12-12-12-12-12--|
E|---------------------------------------------------|

E|---------------------------------------------------|
B|---------------------------------------------------|
G|--11-------11-------11----11-------11-------11-----|
D|--12-12-12-12-12-12-12-12-12-12-12-12-12-12-12-12--|
A|---------------------------------------------------|
E|---------------------------------------------------|

Guitar 2
E|------------------------|
B|------------------------|
G|-------------7----7-7---|
D|--7-------5--7-5--7-7---|
A|--7-------5--5-5--5-5---|
E|--5-------3----3--------| x2

then:
E|-------------------------------------------------------------------|
B|-------------------------------------------------------------------|
G|----------------------------------7-----7-----7---7-----7-----7----|
D|--7-----7-----7---7-----7-----7---7-----7-----7---7-----7-----7----|
A|--7-----7-----7---7-----7-----7---5-5-5-5-5-5-5-5-5-5-5-5-5-5-5-5--|
E|--5-5-5-5-5-5-5-5-5-5-5-5-5-5-5-5----------------------------------|


[Chorus]

E|--------------------|
B|--------------------|
G|-----------7---7----|
D|---7---5---7---7----|
A|---7---5---5---5----|
E|---5---3------------| x4


[Bridge]

E|-----------------------------------------------------|
B|-----------------------------------------------------|
G|--7----7-----7-----7---7-----7-----7-----7-----7-7---|
D|--7----7-----7-----7---7-----7-----7-----7-----7-7---|
A|--5----5-5-5-5-5-5-5---5-5-5-5-5-5-5-5-5-5-5-5-5-5---|
E|-----------------------------------------------------|

E|----------0-------|
B|----------0-------|
G|---2----------7---|
D|---2----2-----7---|
A|---0----2-----5---|
E|--------0---------| x4


[Solo Rythm]

E|----------0-------|
B|----------0-------|
G|---2----------7---|
D|---2----2-----7---|
A|---0----2-----5---|
E|--------0---------| x4

then:
E|------------------------------------|
B|------------------------------------|
G|--7---------------------------------|
D|--7-7-7-7-7-7-7-7-7-7-7-7-7-7-7-7---|
A|--5-5-5-5-5-5-5-5-5-5-5-5-5-5-5-5---|
E|------------------------------------|


*Solo Guitar Parts*


[intro lick]

E|-------------10----|
B|--7h8p7------------|
G|---------9-7-------|
D|-------------------|
A|-------------------|
E|-------------------|


[Guitar Solo]

E|--19b-19br-17-19----17--21b-21---17-----17--------|
B|------------------------------------21b----21b----|
G|--------------------------------------------------|
D|--------------------------------------------------|
A|--------------------------------------------------|
E|--------------------------------------------------|

E|-------------------------------------------|
B|--21b-21br-19-17---17b-17b---17------------|
G|--------------------------------16br-14----|
D|-------------------------------------------|
A|-------------------------------------------|
E|-------------------------------------------|

Tapping part:
E|--12p9p5p0h5h9h12p9p5p0h5h9h12p9p5p0h5h9h12p9p5p0h5h9h--|
B|--------------------------------------------------------|
G|--------------------------------------------------------|
D|--------------------------------------------------------|
A|--------------------------------------------------------|
E|--------------------------------------------------------|

E|--12p7p4p0h4h7h12p7p4p0h4h7h12p7p4p0h4h7h12p7p4p0h4h7h--|
B|--------------------------------------------------------|
G|--------------------------------------------------------|
D|--------------------------------------------------------|
A|--------------------------------------------------------|
E|--------------------------------------------------------|

E|--12p5p2p0h2h5h12p5p2p0h2h5h12p5p2p0h2h5h12p5p2p0h2h5h--|
B|--------------------------------------------------------|
G|--------------------------------------------------------|
D|--------------------------------------------------------|
A|--------------------------------------------------------|
E|--------------------------------------------------------|

E|--12p5p2p0h2h5h12p5p2p0h2h5--|
B|-----------------------------|
G|-----------------------------|
D|-----------------------------|
A|-----------------------------|
E|-----------------------------|

E|--17--17-19-21-22b--22--21br-17----24b---|
B|-----------------------------------------|
G|-----------------------------------------|
D|-----------------------------------------|
A|-----------------------------------------|
E|-----------------------------------------|

p - pull off
h - hammer on
b - bend
br - bend then release
 
 
Steelheart - Everybody Loves Eileen :: indexed at Ultimate Guitar.
Everybody Loves Eileen tabs @ 911Tabs
People who played Steelheart - Everybody Loves Eileen also played these songs by Steelheart:
Shes Gone Chords, Shes Gone Acoustic Chords, Shes Gone Chords, Ill Never Let You Go Tab, Shes Gone Tab, Mama Dont You Cry Chords

Quick tip, so you can enjoy Everybody Loves Eileen even more:

YourChords.com Guitar Chords and Tabs Archive is currently indexing over 240'000 songs from 21'000+ different artists. And new chords just keep on coming in, so you will surely never run out of them.

Show us your talent, perform Everybody Loves Eileen!

Here you can post a video or audio performance. Tell me more ...
Where can we find your performance? Tell me more ...
Your comment:
Please, log in to post your performance.