Artists by letter: A B C D E F G H I J K L M N O P Q R S T U V W X Y Z 0-9

 
Line In The Sand
(This is for the left panned guitar)

[Intro]
e|---------------------------------------------------------------------------|
B|---------------------------------------------------------------------------|
G|-5--5---------5-5--5--5-5--5-5--5------------------------------------------|
D|-5--5---------5-5--5--5-5--5-5--5------------------------------------------|
A|-3--3---------3-3--3--3-3--3-3--3------------------------------------------|
E|---------------------------------------------------------------------------|

[Verse]
e|---------------------------------------------------------------------------|
B|--1-1--1-1-1-1/-4-4-4-4-4-4-4-4--------------------------------------------|
G|--0-0--0-0-0-0/-0-0-0-0-0-0-0-0--------------------------------------------|
D|--x-x--x-x-x-x/-x-x-x-x-x-x-x-x--------------------------------------------| (x4)
A|--3-3--3-3-3-3/-6-6-6-6-6-6-6-6--------------------------------------------|
E|---------------------------------------------------------------------------|

[Chorus]
e|---------------------------------------------------------------------------|
B|--1-1--1-1-1-1/-4-4-4-4-4-4-4-4--------------------------------------------|
G|--0-0--0-0-0-0/-0-0-0-0-0-0-0-0--------------------------------------------|
D|--x-x--x-x-x-x/-x-x-x-x-x-x-x-x--------------------------------------------| (x4)
A|--3-3--3-3-3-3/-6-6-6-6-6-6-6-6--------------------------------------------|
E|---------------------------------------------------------------------------|

(Rest of the song)
e|---------------------------------------------------------------------------|
B|---------------------------------------------------------------------------|
G|--9-9-9-9-9-9-9-9-8-8-8-8-8-8-7--------------------------------------------|
D|--9-9-9-9-9-9-9-9-8-8-8-8-8-8-7--5-5-5---5---------------------------------|
A|--7-7-7-7-7-7-7-7-6-6-6-6-6-6-5--5-5-5---5---------------------------------|
E|---------------------------------3-3-3-0-3---------------------------------|

e|---------------------------------------------------------------------------|
B|---------------------------------------------------------------------------|
G|--9-9-9-9-9-9-9-9-8-8-8-8-8-8-7--5-5-4-4-----------------------------------|
D|--9-9-9-9-9-9-9-9-8-8-8-8-8-8-7--5-5-4-4-----------------------------------|
A|--7-7-7-7-7-7-7-7-6-6-6-6-6-6-5--3-3-2-2-----------------------------------|
E|---------------------------------------------------------------------------|

e|---------------------------------------------------------------------------|
B|---------------------------------------------------------------------------|
G|--9-9-9-9-9-9-9-9-8-8-8-8-8-8-7--------------------------------------------|
D|--9-9-9-9-9-9-9-9-8-8-8-8-8-8-7--5-5-5---5---------------------------------|
A|--7-7-7-7-7-7-7-7-6-6-6-6-6-6-5--5-5-5---5---------------------------------|
E|---------------------------------3-3-3-0-3---------------------------------|

e|---------------------------------------------------------------------------|
B|---------------------------------------------------------------------------|
G|--9-9-9-9-9-9-9-9-8-8-8-8-8-8-7--5-5-4-4-----------------------------------|
D|--9-9-9-9-9-9-9-9-8-8-8-8-8-8-7--5-5-4-4-----------------------------------|
A|--7-7-7-7-7-7-7-7-6-6-6-6-6-6-5--3-3-2-2-----------------------------------|
E|---------------------------------------------------------------------------|

e|-------------------------------------------------------------|
B|-------------------------------------------------------------|
G|--9-9-9-9-8-8-8-7--------------------------------------------|
D|--9-9-9-9-8-8-8-7--5-5-5---5---------------------------------|
A|--7-7-7-7-6-6-6-5--5-5-5---5---------------------------------|
E|-------------------3-3-3-0-3---------------------------------|

e|-------------------------------------------------------------|
B|-------------------------------------------------------------|
G|--9-9-9-9-8-8-8-7--5-5-4-4-----------------------------------|
D|--9-9-9-9-8-8-8-7--5-5-4-4-----------------------------------|
A|--7-7-7-7-6-6-6-5--3-3-2-2-----------------------------------|
E|-------------------------------------------------------------|

e|-------------------------------------------------------------|
B|-------------------------------------------------------------|
G|--9-9-9-9-8-8-8-7--------------------------------------------|
D|--9-9-9-9-8-8-8-7--5-5-5---5---------------------------------|
A|--7-7-7-7-6-6-6-5--5-5-5---5---------------------------------|
E|-------------------3-3-3-0-3---------------------------------|

e|-------------------------------------------------------------|
B|-------------------------------------------------------------|
G|--9-9-9-9-8-8-8-7--5-5-4-4-----------------------------------|
D|--9-9-9-9-8-8-8-7--5-5-4-4-----------------------------------|
A|--7-7-7-7-6-6-6-5--3-3-2-2-----------------------------------|
E|-------------------------------------------------------------|

e|---------------------------------------------------------------|
B|-----2-2-----2-2-----2-2-----2-2-----3-3-----3-3-----3-3---3-3-|
G|-x-x-2-2-x-x-2-2-x-x-2-2-x-x-2-2-x-x-2-2-x-x-2-2-x-x-2-2-x-2-2-|
D|-x-x-2-2-x-x-2-2-x-x-2-2-x-x-2-2-x-x-2-2-x-x-2-2-x-x-2-2-x-2-2-|
A|-x-x-----x-x-----x-x-----x-x-----------------------------------|
E|---------------------------------------------------------------|

e|---------------------------------------------------------------|
B|-----3-3-----3-3---3-3---3-3-----------------------------------|
G|-x-x-2-2-x-x-2-2-x-2-2-x-2-2-----------------------------------|
D|-x-x-4-4-x-x-4-4-x-4-4-x-4-4-----------------------------------|
A|-x-x-----x-x-----x-----x-----0-3-0-2-0-4-0-3-0-4pb-------------|
E|---------------------------------------------------------------|

e|---------------------------------------------------------------|
B|-----3-3-----3-3-----3-3-----3-3-----3-3-----3-3-----3-3---3-3-|
G|-x-x-2-2-x-x-2-2-x-x-2-2-x-x-2-2-x-x-2-2-x-x-2-2-x-x-2-2-x-2-2-|
D|-x-x-2-2-x-x-2-2-x-x-2-2-x-x-2-2-x-x-2-2-x-x-2-2-x-x-2-2-x-2-2-|
A|-x-x-----x-x-----x-x-----x-x-----------------------------------|
E|---------------------------------------------------------------|

e|---------------------------------------------------------------|
B|-----3-3-----3-3---3-3---3-3-----------------------------------|
G|-x-x-2-2-x-x-2-2-x-2-2-x-2-2-----------------------------------|
D|-x-x-4-4-x-x-4-4-x-4-4-x-4-4-----------------------------------|
A|-x-x-----x-x-----x-----x-----0-3-0-2-0-4-0-3-0-4pb-------------|
E|---------------------------------------------------------------|

e|---------------------------------------------------------------|
B|-----3-3-----3-3-----3-3-----3-3-----3-3-----3-3-----3-3---3-3-|
G|-x-x-2-2-x-x-2-2-x-x-2-2-x-x-2-2-x-x-2-2-x-x-2-2-x-x-2-2-x-2-2-|
D|-x-x-2-2-x-x-2-2-x-x-2-2-x-x-2-2-x-x-2-2-x-x-2-2-x-x-2-2-x-2-2-|
A|-x-x-----x-x-----x-x-----x-x-----------------------------------|
E|---------------------------------------------------------------|

e|---------------------------------------------------------------|
B|-----3-3-----3-3---3-3---3-3-----------------------------------|
G|-x-x-2-2-x-x-2-2-x-2-2-x-2-2-----------------------------------|
D|-x-x-4-4-x-x-4-4-x-4-4-x-4-4-----------------------------------|
A|-x-x-----x-x-----x-----x-----0-3-0-2-0-4-0-3-0-4pb-------------|
E|---------------------------------------------------------------|

e|---------------------------------------------------------------|
B|-----3-3-----3-3-----3-3-----3-3-----3-3-----3-3-----3-3---3-3-|
G|-x-x-2-2-x-x-2-2-x-x-2-2-x-x-2-2-x-x-2-2-x-x-2-2-x-x-2-2-x-2-2-|
D|-x-x-2-2-x-x-2-2-x-x-2-2-x-x-2-2-x-x-2-2-x-x-2-2-x-x-2-2-x-2-2-|
A|-x-x-----x-x-----x-x-----x-x-----------------------------------|
E|---------------------------------------------------------------|

e|---------------------------------------------------------------|
B|-----3-3-----3-3---3-3---3-3-----------------------------------|
G|-x-x-2-2-x-x-2-2-x-2-2-x-2-2-----------------------------------|
D|-x-x-4-4-x-x-4-4-x-4-4-x-4-4-----------------------------------|
A|-x-x-----x-x-----x-----x-----0-3-0-2-0-4-0-3-0-4pb-------------|
E|---------------------------------------------------------------|

e|---------------------------------------------------------------------------|
B|--3------------------------------------------------------------------------|
G|--2---------------------0-----------------0--------------------------------|
D|--0---------------------7-----------------7--------------------------------|
A|------------------------5-----------------5--------------------------------|
E|------------------------------------------------------(Pick Scrape)--------|

e|---------------------------------------------------------------------------|
B|---------------------------------------------------------------------------|
G|-7-7-7-----7-7-7-----7-7-7-------------------------------------------------|
D|-6-6-6-----6-6-6-----6-6-6-------------------------------------------------|
A|-7-7-7-----7-7-7-----7-7-7------------5-7----------------------------------|
E|------0-0-0-----0-0-0-----0-0-0-5-7-8--------------------------------------|


************************************

| /   Slide up
| x   Dead note
| pb  Pre-bend

************************************
 
 
Q And Not U - Line In The Sand :: indexed at Ultimate Guitar.
Line In The Sand tabs @ 911Tabs

Quick tip, so you can enjoy Line In The Sand even more:

If you spend just 10 seconds to register, you will be able to comment on all the chords and tabs and rate them. You will as well be able to comment on videos of your fellow guitarists and give them ratings from 1 to 5 ... And - of course - you can share your own videos with them and see what they think of you. :)
Click here to join us!

Show us your talent, perform Line In The Sand!

Here you can post a video or audio performance. Tell me more ...
Where can we find your performance? Tell me more ...
Your comment:
Please, log in to post your performance.