Artists by letter: A B C D E F G H I J K L M N O P Q R S T U V W X Y Z 0-9

 
Oh My My
Oh My My
Nomad


Original is played in the key of G, guitar tuned down half a step to Eb. This version is written 
for bar chords in standard tuning.
(Scroll down for chord/lyric version in G.)


[Intro]

   F#                             D#m                 C#                 (F#...)
e|----------|-------------------|--------------------|------------------|--------------||
B|----------|-------------------|--------------------|------------------|--------------||
G|----------|-------------------|--------------------|------------------|--------------||
D|----------|-------------------|--------------------|------------------|--------------||
A|----------|----------4------6-|--------/9--8--6--4-|------------4-----|--------------||
E|--2-------|-----/6------6-----|--------------------|--------/6-----4--|-2------------||
                                                                             (see you...)

[Verse] 

    F#                       D#m            C#    
e|--2-----------|----------|--6-----------|----------------------||
B|--2-----------|----------|--7-----------|--6-------------------||
G|--3-----------|----------|--8-----------|--6------------------.||
D|--4-----------|---./.----|--8-----------|--6------------------.|| Repeat as needed
A|--4-----------|----------|--6-----------|--4-------------------||
E|--2-----------|----------|--------------|----------------------||
See you walking around with your, back turned to me
I've tried everything I can, but words, can't break free...


[Chorus] 

    B             F#             A#m7           D#m   C#
e|----------------2-2------------4-4------------6-6----------------||
B|--4-4-----------2-2------------4-4------------7-7---6-6----------||
G|--4-4-----------3-3------------4-4------------8-8---6-6---------.||
D|--4-4-----------4-4------------4-4------------8-8---6-6---------.||
A|--2-2-----------4-4------------6-6------------6-6---4-4----------||
E|----------------2-2------------4-4-------------------------------||
Oh My My you get in my head, you're in my head, you're in my head
Oh My My you get in my head, you're in my head, you're in my head

                                            __________________   ________
    B             F#             A#m7      |1.D#m  C#           |2. C#
e|---------------|-2------------|-4---------|-6----------------||-------||
B|--4------------|-2------------|-4---------|-7----6-----------||--6----||
G|--4------------|-3------------|-4---------|-8----6----------.||--6----||
D|--4------------|-4------------|-4---------|-8----6----------.||--6----||
A|--2------------|-4------------|-6---------|-6----4-----------||--4----||
E|---------------|-2------------|-4---------|------------------||-------||
(strumming)

All the time I spent with you, you had no clue I was right behind you
Oh My My you get in my head, you're in my head, you're in my head


Intro Line repeat


[Instrumental]

   F#                             D#m                 C#                 (F#...)
e|----------|-------------------|--------------------|------------------|--------------||
B|----------|-------------------|--------------------|------------------|--------------||
G|----------|-------------------|--------------------|------------------|--------------||
D|----------|-------------------|--------------------|------------------|--------------||
A|----------|----------4------6-|--------/9--8--6--4-|------------4-----|--------------||
E|--2-------|-----/6------6-----|--------------------|--------/6-----4--|-2------------||


[Verse 2]

    F#                       D#m            C#    
e|--2-----------|----------|--6-----------|----------------------||
B|--2-----------|----------|--7-----------|--6-------------------||
G|--3-----------|----------|--8-----------|--6------------------.||
D|--4-----------|---./.----|--8-----------|--6------------------.|| Repeat as needed
A|--4-----------|----------|--6-----------|--4-------------------||
E|--2-----------|----------|--------------|----------------------||
I dream't a hundred times, she ran off with me
we stow into some old boat and we float, endlessly..


[Chorus] 

    B             F#             A#m7           D#m   C#
e|----------------2-2------------4-4------------6-6----------------||
B|--4-4-----------2-2------------4-4------------7-7---6-6----------||
G|--4-4-----------3-3------------4-4------------8-8---6-6---------.||
D|--4-4-----------4-4------------4-4------------8-8---6-6---------.||
A|--2-2-----------4-4------------6-6------------6-6---4-4----------||
E|----------------2-2------------4-4-------------------------------||
Oh My My you get in my head, you're in my head, you're in my head
Oh My My you get in my head, you're in my head, you're in my head

                                            __________________   ________
    B             F#             A#m7      |1.D#m  C#           |2. C#
e|---------------|-2------------|-4---------|-6----------------||-------||
B|--4------------|-2------------|-4---------|-7----6-----------||--6----||
G|--4------------|-3------------|-4---------|-8----6----------.||--6----||
D|--4------------|-4------------|-4---------|-8----6----------.||--6----||
A|--2------------|-4------------|-6---------|-6----4-----------||--4----||
E|---------------|-2------------|-4---------|------------------||-------||
(strumming)

All the time I spent with you, you had no clue I was right behind you
Oh My My you get in my head, you're in my head, you're in my head


[Bridge] 

    B         F#         F#        C#        B         F#       D#m       C#      
e|-----------|-2--------|-2-------|--------|---------|-2-------|-6------|--------------|
B|---4-------|-2--------|-2-------|-6------|--4------|-2-------|-7------|-6------------|
G|---4-------|-3--------|-3-------|-6------|--4------|-3-------|-8------|-6------------|
D|---4-------|-4--------|-4-------|-6------|--4------|-4-------|-8------|-6------------|
A|---2-------|-4--------|-4-------|-4------|--2------|-4-------|-6------|-4------------|
E|-----------|-2--------|-2-------|--------|---------|-2-------|--------|--------------|
   Oh...      My My....   Oh....   My My...  Oh...     My My.... Oh...    My My...


[Chorus] 

    B             F#             A#m7           D#m   C#
e|----------------2-2------------4-4------------6-6----------------||
B|--4-4-----------2-2------------4-4------------7-7---6-6----------||
G|--4-4-----------3-3------------4-4------------8-8---6-6---------.||
D|--4-4-----------4-4------------4-4------------8-8---6-6---------.||
A|--2-2-----------4-4------------6-6------------6-6---4-4----------||
E|----------------2-2------------4-4-------------------------------||
Oh My My you get in my head, you're in my head, you're in my head
Oh My My you get in my head, you're in my head, you're in my head

                                            __________________   ________
    B             F#             A#m7      |1.D#m  C#           |2. C#
e|---------------|-2------------|-4---------|-6----------------||-------||
B|--4------------|-2------------|-4---------|-7----6-----------||--6----||
G|--4------------|-3------------|-4---------|-8----6----------.||--6----||
D|--4------------|-4------------|-4---------|-8----6----------.||--6----||
A|--2------------|-4------------|-6---------|-6----4-----------||--4----||
E|---------------|-2------------|-4---------|------------------||-------||
(strumming)

All the time I spent with you, you had no clue I was right behind you
Oh My My you get in my head, you're in my head, you're in my head



    B             F#             A#m7           D#m   C#
e|----------------2-2------------4-4------------6-6----------------||
B|--4-4-----------2-2------------4-4------------7-7---6-6----------||
G|--4-4-----------3-3------------4-4------------8-8---6-6---------.||
D|--4-4-----------4-4------------4-4------------8-8---6-6---------.||
A|--2-2-----------4-4------------6-6------------6-6---4-4----------||
E|----------------2-2------------4-4-------------------------------||
Oh My My you get in my head, you're in my head, you're in my head
Oh My My you get in my head, you're in my head, you're in my head

                                            __________________   ________
    B             F#             A#m7      |1.D#m  C#           |2. C#
e|---------------|-2------------|-4---------|-6----------------||-------||
B|--4------------|-2------------|-4---------|-7----6-----------||--6----||
G|--4------------|-3------------|-4---------|-8----6----------.||--6----||
D|--4------------|-4------------|-4---------|-8----6----------.||--6----||
A|--2------------|-4------------|-6---------|-6----4-----------||--4----||
E|---------------|-2------------|-4---------|------------------||-------||
(strumming)

All the time I spent with you, you had no clue I was right behind you
Oh My My you get in my head, you're in my head, you're in my head




Version In G  (tune down half a step to match the original pitch)


[Intro]

   G                              Em                  D                  (G...)
e|----------|-------------------|--------------------|------------------|--------------||
B|----------|-------------------|--------------------|------------------|--------------||
G|----------|-------------------|--------------------|------------------|--------------||
D|----------|-------------------|--------------------|------------------|--------------||
A|----------|----------5------7-|-------/10--9--7--5-|------------5-----|--------------||
E|--3-------|-----/7------7-----|--------------------|--------/7-----5--|-3------------||

                                                                              (see you...)
[Verse 1]

G                                 Em             D
See you walking around with your, back turned to me
G                              Em       D
I've tried everything I can, but words, can't break free...


[Chorus]

C                G            Am7                      Em    D
Oh My My you get in my head, you're in my head, you're in my head
C                G            Am7                      Em    D
Oh My My you get in my head, you're in my head, you're in my head
C                G                 Am7               Em      D
All the time I spent with you, you had no clue I was right behind you
C                G            Am7                      D
Oh My My you get in my head, you're in my head, you're in my head


[Instrumental]

   G                              Em                  D                  (G...)
e|----------|-------------------|--------------------|------------------|--------------||
B|----------|-------------------|--------------------|------------------|--------------||
G|----------|-------------------|--------------------|------------------|--------------||
D|----------|-------------------|--------------------|------------------|--------------||
A|----------|----------5------7-|-------/10--9--7--5-|------------5-----|--------------||
E|--3-------|-----/7------7-----|--------------------|--------/7-----5--|-3------------||


[Verse 2]

(same chords as verse 1)

G                             Em             D
I dream't a hundred times, she ran off with me
G                           Em       D
we stow into some old boat and we float, endlessly..


[Chorus]

C                G            Am7                      Em    D
Oh My My you get in my head, you're in my head, you're in my head
C                G            Am7                      Em    D
Oh My My you get in my head, you're in my head, you're in my head
C                G                 Am7               Em      D
All the time I spent with you, you had no clue I was right behind you
C                G            Am7                      D
Oh My My you get in my head, you're in my head, you're in my head


[Bridge]

C     G  G     D
Oh My My oh My My
C     G  Em    D
Oh My My Oh My My....


[Chorus]

C                G            Am7                      Em    D
Oh My My you get in my head, you're in my head, you're in my head
C                G            Am7                      Em    D
Oh My My you get in my head, you're in my head, you're in my head
C                G                 Am7               Em      D
All the time I spent with you, you had no clue I was right behind you
C                G            Am7                      D
Oh My My you get in my head, you're in my head, you're in my head



************************************

| /  Slide up

************************************
 
 
Nomad - Oh My My :: indexed at Ultimate Guitar.
Oh My My tabs @ 911Tabs
People who played Nomad - Oh My My also played these songs by Nomad:
Tetap Menantimu Chords, Love Will Call Chords, Oh My My Tab, I Will Find You Chords, Tetap Menantimu, Love Will Call

Quick tip, so you can enjoy Oh My My even more:

YourChords.com Guitar Chords and Tabs Archive is currently indexing over 240'000 songs from 21'000+ different artists. And new chords just keep on coming in, so you will surely never run out of them.

Show us your talent, perform Oh My My!

Here you can post a video or audio performance. Tell me more ...
Where can we find your performance? Tell me more ...
Your comment:
Please, log in to post your performance.