Artists by letter: A B C D E F G H I J K L M N O P Q R S T U V W X Y Z 0-9

Kahit Maputi Na Ang Buhok Ko (ver 5) - Noel Cabangon


 
Kahit Maputi Na Ang Buhok Ko
KAHIT MAPUTI NA ANG BUHOK KO by Rey Valera/Noel Cabangon

Tabs written and arranged by Edwin-E (in YouTube)
Blog: http://guitarplucking.blogspot.com
Facebook Page: EGuitar

INTRO:


E|--4--5-------7--7h9p7--5--7--5--4--5-------7--|
B|--5--5--5/7--7---------5--------5--5--5/7--7--|
G|--4--6-------8---------6--------4--6-------8--|
D|----------------------------------------------|
A|----------------------------------------------|
E|--0--0-------0---------0--------0--0----------|

VERSE 1:

E|--------------------------------|
B|-----------------7--7--9--------|
G|-----------9--9-----------9-----|
D|--9--9--9--------------------9--|
A|--------------------------------|
E|--------------------0-----------|
                     E
Kung tayo ay matanda na


E|-----4--4--------------------------|
B|--7--------9--9--7--5--7-----------|
G|--------------------------------8--|
D|-----------------------------9-----|
A|--------------------------9--------|
E|--4--------5-----------7-----------|
Abm        A         B
Sana'y 'di tayo magbago


E|--------------------4--4--|
B|--7--9--9--------7--------|
G|-----9--9--9--------------|
D|--------------9-----------|
A|--------------------------|
E|--0--------------4--------|
E          Abm
Kailanman, nasaan ma'y

E|--4-----------------------|
B|-----9--9--7--5--7--------|
G|--------------------------|
D|-----------------------9--|
A|--------------------9-----|
E|-----5-----------7--------|
A                B
Ito ang pangarap ko


CHORUS 1:

E|---------------7--7--7--9--9--4-----------------------------|
B|--7--7--9--10--------------------7--4--7--5--9--7--9--7-----|
G|---------------------------------------------9--7--9--7--9--|
D|------------------------------------------------------------|
A|---------------------------------------4--------------------|
E|---------------4--------4--------------------0--------------|
          Abm        Ab7              C#m    E7
Makuha mo pa kayang ako'y hagkan at yakapin, hmm...


E|---------------------------------4-----------------------------|
B|-----------------5------------------------4--------7--------6--|
G|-----------6--6-----8--8---------------------4-----------4-----|
D|--------7-----------------11--9--------6--------6-----6--------|
A|-----7------------------------------6--------------4-----------|
E|--5-----------------7------------4-----------------------------|
A        B          Abm  C#7
Hanggang pagtanda natin


E|--4--4--5--7--7--9--9--9--9--9--11--9--9--7--4--7--4--|
B|---------------------------------------------------6--|
G|---------------------------------------------------4--|
D|---------------------------------------------------6--|
A|---------------------------------------------------4--|
E|--------------5--------7---------------4--------------|
             A          B             Abm   C#7
Nagtatanong lang sa'yo ako pa kaya'y ibigin mo


E|--7--5--4--9---------------|
B|---------------------------|
G|--------------6--8---------|
D|--------------------11--9--|
A|---------------------------|
E|-----------5-----7---------|
      A          B         E
Kahit maputi na ang buhok ko


E|--4--5-------7--7h9p7--5--7--5--4--5-------7--|
B|--5--5--5/7--7---------5--------5--5--5/7--7--|
G|--4--6-------8---------6--------4--6-------8--|
D|----------------------------------------------|
A|----------------------------------------------|
E|--0--0-------0---------0--------0--0----------|


VERSE 2: (Follow tabs as 1)

             E         Abm
Pagdating ng araw ang 'yong buhok
   A          B
Ay puputi na rin
   E           Abm
Sabay tayong mangangarap
      A        B
Ng nakaraan sa'tin

CHORUS 2:
        Abm   Ab7         C#m      E7
Ang nakalipas ay ibabalik natin, hmmm...
A     B         Abm  C#7
papaalala ko sa'yo
             A       B                 Abm      C#7
Ang aking pangako na'ng pag-ibig ko'y lagi sa'yo
          A      B        E
Kahit maputi na ang buhok ko....
 
 
Noel Cabangon - Kahit Maputi Na Ang Buhok Ko :: indexed at Ultimate Guitar.
Kahit Maputi Na Ang Buhok Ko tabs @ 911Tabs
People who played Noel Cabangon - Kahit Maputi Na Ang Buhok Ko also played these songs by Noel Cabangon:
Kanlungan Chords, Kanlungan Chords, Kahit Maputi Na Ang Buhok Ko Tab, Kahit Maputi Na Ang Buhok Ko Chords, Kailan Chords, Kanlungan Tab

Quick tip, so you can enjoy Kahit Maputi Na Ang Buhok Ko even more:

You might want to transpose the song if it is too high or too low for you to sing. Just click the desired option while playing a song and all the chords will automatically be transponded into a new key.

Show us your talent, perform Kahit Maputi Na Ang Buhok Ko!

Here you can post a video or audio performance. Tell me more ...
Where can we find your performance? Tell me more ...
Your comment:
Please, log in to post your performance.