Artists by letter: A B C D E F G H I J K L M N O P Q R S T U V W X Y Z 0-9

 
Jesus Hates You
[Intro]
e|-------------------|-------------|-------------------|-------------|
B|-------------------|-------------|-------------------|-------------|
G|-7-7-7-7-7-7-7-7-7-|---*pause*---|-7-7-7-7-7-7-7-7-7-|---*pause*---|
D|-7-7-7-7-7-7-7-7-7-|-------------|-7-7-7-7-7-7-7-7-7-|-------------|
A|-5-5-5-5-5-5-5-5-5-|-------------|-5-5-5-5-5-5-5-5-5-|-------------|
E|-------------------|-------------|-------------------|-------------|

[Outro]
e|-------------|-------------|-------------|
B|-------------|-------------|-------------|
G|-------------|-5-5-5-5-5-5-|-7-----------|
D|-5-5-5-5-5-5-|-5-5-5-5-5-5-|-7-----------|
A|-5-5-5-5-5-5-|-3-3-3-3-3-3-|-5-----------|
E|-3-3-3-3-3-3-|-------------|-------------|
 
 
Noah (Noot) - Jesus Hates You :: indexed at Ultimate Guitar.
Jesus Hates You tabs @ 911Tabs
People who played Noah (Noot) - Jesus Hates You also played these songs by Noah (Noot):
Jesus Hates You Tab

Quick tip, so you can enjoy Jesus Hates You even more:

YourChords.com Guitar Chords and Tabs Archive is currently indexing over 240'000 songs from 21'000+ different artists. And new chords just keep on coming in, so you will surely never run out of them.

Show us your talent, perform Jesus Hates You!

Here you can post a video or audio performance. Tell me more ...
Where can we find your performance? Tell me more ...
Your comment:
Please, log in to post your performance.