Artists by letter: A B C D E F G H I J K L M N O P Q R S T U V W X Y Z 0-9

 

Ya No Me Hagas Sufrir Mas
   hola saludos a la bandera!!!
"wwww.myspace.com/nopositivorock"
     "Ya no me hagas sufrir mas"

"bemol"
intro:

1era guitarra:

e-------------------------(x 2)---------------------"-"---"-"----|
b----------------------------------------------------------------|
g----------------------------------------------------------------|
d--0-0-7-0-5-0-4-0---------------------5---4---2/4------*-----*--|
a------------------0-0-7--5-0-4-0--2-2---2---2----------5-----7--|
E---------------------------------------------------3-3---5-5----|

2da:

e--------------------------------------------------|
b-----------------------------*----*---------------|
g--77777---22222-----------------------------------|
d--77777---22222---99999---55---77-----------------|
a--55555---00000---99999---55-5-77-7---------------|
E------------------77777---33---55-----------------|

versos:

e--"""""--"""""--"""""--"""""--""""""---------|
b---------------------------------------------|
g--77777--22222--44444----------------( x2 )--|
d--77777--22222--44444--55555--77777----------|
a--55555--00000--22222--55555--77777----------|
E-----------------------33333--55555----------|

e------------------------------------------------------|
b------------------------------------------------------|
g--7777777--999--77777777---1212121212---1111111111----|
d------------------------------------------------------|
a--5555555--777--55555555---1010101010---9-9-9-9-9-----|
E------------------------------------------------------|

e--"""""--"""""--"""""--"""""--""""""-------------------------|
b-------------------------------------------------------x-----|
g--77777--22222--44444------------------777777777-----x-5-----|
d--77777--22222--44444--55555--77777---------------7--5-------|
a--55555--00000--22222--55555--77777----555555555--7----------|
E-----------------------33333--55555---------------5----------|

coro:

e---------------------------------------------------------------|
b---------------------------------------------------------------|
g-----------------777777-------------------------777777777------|
d--55555--777777--777777--999999--55555--777777--777777777-7----|
a--55555--777777--555555--999999--55555--777777--555555555-7----|
E--33333--555555----------777777--33333--555555------------5----|

e-------------------------------------------------------------------|
b-------------------------------------------------------------------|
g---------------------------------------------------------77777777--|
d--5555555--7777777--9999999--7777777--5555555--77777777--77777777--|
a--5555555--7777777--9999999--7777777--5555555--77777777--55555555--|
E--3333333--5555555--7777777--5555555--3333333--55555555------------|

verso 2:

e-""----x-""------""------""--""--""-------""----x-""-------------|
b-----x-7-------x-------x---------------x------x-7-------x---x----|
g-77--7-------x-7-44--x-5---------77--x-7------7---44--x-5-x-7----|
d-77------77--7---44--5---55--77--77--7----77------44--5---7------|
a-55------77------22------55--77--55-------77------22-------------|
E---------55--------------33--55-----------55---------------------|

solo:

e-(~)-------------(~)--------------(~)----------------------------------|(~)
b--7-777-8-7---------777-8-7---7-10-7--777-8-7-------------7-8--7h8h10--|
g------------9-7-9-7---------9-----------------9-7(~)--7-9--------------|
d--------------------------------------------------7-9------------------|
a-----------------------------------------------------------------------|
E-----------------------------------------------------------------------|

e---------------------------------------------------------------------------|
b--14h15p14----14h15p14----14h17p14-------------14h15p14----14h15p14--z-14--|
g-----------14----------14---------14--( x 2 )----------14----------14---14-|
d---------------------------------------------------------------------------|
a---------------------------------------------------------------------------|
E---------------------------------------------------------------------------|

e---------------------------12-14---|
b-----------------12-14-15----------|
g--12-11--12--14--------------------|
d-----------------------------------|
a-----------------------------------|
E-----------------------------------|

-----------
leyenda
-----------

(") pall mute
(*) armonico artificial
(x) armonico natural
(~) vibrato
(h) hammer on
(p) pull off

cualquier duda les dejo mi correo :

[email protected]

cuidense!!!!
 
 
No Positivo - Ya No Me Hagas Sufrir Mas :: indexed at Ultimate Guitar.
Ya No Me Hagas Sufrir Mas tabs @ 911Tabs
People who played No Positivo - Ya No Me Hagas Sufrir Mas also played these songs by No Positivo:
Ya No Me Hagas Sufrir Mas Tab, No Eres Superior Tab, Crucigrama Tab, Morado Tab, Hacia Adelante Tab, Crucigrama

Quick tip, so you can enjoy Ya No Me Hagas Sufrir Mas even more:

After the registration (which takes just 10 seconds, remember?) you will be able to use your profile - your very own piece of YourChords.com.

Show us your talent, perform Ya No Me Hagas Sufrir Mas!

Here you can post a video or audio performance. Tell me more ...
Where can we find your performance? Tell me more ...
Your comment:
Please, log in to post your performance.