Artists by letter: A B C D E F G H I J K L M N O P Q R S T U V W X Y Z 0-9

 
Cuando Yo Muera
CUANDO YO MUERA

AHÍ LES VA LA CANCION EN EL TONO ORIGINAL,
ADEMAS ESTA MUY BIEN SACADA, CREO QUE ESTA 100% CORRECTA
 Y APROVECHO PARA DEDICÁRSELA A JOHANNA decirle que la quiero mucho

     G#                     Lm#                        D#
e----------------------------------------------------------
b----------------------------------------------------------
g-6/8--888--6-5--6/8--13----------------------------------
d-------------------------11--11-11-11-----10---8----10/11-
a---------------------------------------------------------
E----------------------------------------------------------


    G#                           Lm#                     D#
e-9/11--11-11-11--9-8--9/11-16----------------------------
b------------------------------14--14-14-14--13--11--13/14-
g----------------------------------------------------------
d----------------------------------------------------------
a----------------------------------------------------------
E----------------------------------------------------------

e----------------------------------------------------------
b----------------------------------------------------------
g--------1-----3-----4-------------------------------------
d---1------------------------------------------------------
a----------------------------------------------------------
E----------------------------------------------------------

(este pedazo va hablado y va en el segundo riff de la intro)

Y cuando yo muera siempre sabras que mi amor
 por ti vive para siempre
G#m
Tu eres la fe de mis temores
la libertad de mis prisiones
F#
tu eres mi paz en cada momento
por que comprendes mis sentimientos
G#m
Y sin final con todo el corazón
Siempre te voy amar eres mi razón
F#
Es que mi amor se quedara a vivir
                                G#
Entre tu ser para siempre en ti iii
             F#                  G#
Después de morir para siempre en tiiiiii


          Lm#      D#        Lm#  D#      G#
Por que te amo, uh uh  te necesito   solo tu

C#                         F#
Siempre sabrás que mi amor vive
                          C#
Sentirás mi calor como una luz
                 F#
Y desde el día en yo muera
                            G#
Yo seré el ángel de tu juventud


           Lm#    D#        Lm# D#      G#
Por que te amo uh uh te necesito   solo tu

    G#                  Lm#                        D#
e----------------------------------------------------------
b-----------------------------14-14-14---13--11---13/14----
g-6/8--888--6-5--6/8--13-----------------------------------
d-------------------------11-------------------------------
a----------------------------------------------------------
E----------------------------------------------------------

e----------------------------------------------------------
b----------------------------------------------------------
g--------1-----3-----4-------------------------------------
d---1------------------------------------------------------
a----------------------------------------------------------
E----------------------------------------------------------


G#m
cuando yo muera no habrá imposible
amor te seguiré para siempre
F#
por que te doy mi vida entera
por que mi alma no ve fronteras
G#m
tendrá mi amor a ti como una luz
que ilumino nuestra juventud
F#
seré tu ángel que no muere
                          G#
por que mi amor solo eres tu
          Lm#     D#        Lm# D#      G#
por que te amo uh uh te necesito   solo tu


D#
siempre sabras......

En el ultimo coro sube medio tono que es así:


D                            G
Siempre sabrás que mi amor vive
                          D
Sentirás mi calor como una luz
                     G
Y desde el día en yo muera
                         A
Yo seré el ángel de tu juventud

           Em     A         Em        A
Por que te amo uh uh te necesito solo tu.

e----------------------------------------------------------
b-------------------------------------2--------------------
g-----8----------7----------5---------3--------------------
d-----9----------7----------5---------0--------------------
a----------------------------------------------------------
E----------------------------------------------------------

CUALQUIER DUDA O COMENTARIO ME PUEDEN ESCRIBIR
A MI CORREO 
 
 
No Mercy - Cuando Yo Muera :: indexed at Ultimate Guitar.
Cuando Yo Muera tabs @ 911Tabs
People who played No Mercy - Cuando Yo Muera also played these songs by No Mercy:
When I Die Chords, A Donde Vas Tab, Cuando Yo Muera Tab, Cuando Yo Muera Tab, Cuando Yo Muera Chords, Where Do You Go Chords

Quick tip, so you can enjoy Cuando Yo Muera even more:

YourChords.com Guitar Chords and Tabs Archive is currently indexing over 240'000 songs from 21'000+ different artists. And new chords just keep on coming in, so you will surely never run out of them.

Show us your talent, perform Cuando Yo Muera!

Here you can post a video or audio performance. Tell me more ...
Where can we find your performance? Tell me more ...
Your comment:
Please, log in to post your performance.