Artists by letter: A B C D E F G H I J K L M N O P Q R S T U V W X Y Z 0-9

Where Did You Sleep Last Night (ver 3) - Nirvana


 
Where Did You Sleep Last Night
D#||---------0------|--0------------------|------------------|---------3-------|
A#||--0------0------|--0------------------|---------2--2--0--|---------0--0----|
F#||--x------2------|--x------2-----------|---------2--2--0--|---------0--0----|
C#||--2-------------|--2------2-----------|--2---------2--0--|--0---------0----|
G#||--2-------------|--2------------------|--0---------0-----|--x---------x----|
D#||--0-------------|--0---------0--3--4--|------------------|--3---------3----|

------------------|------------------|---------------0--|--0-------0--------|
--4------4--4--4--|------------4-----|--0------0--0--0--|--0----0--0--0--0--|
--4------4--4--4--|------------4-----|--x------x--x--x--|--x----x--x--x--x--|
--4------4--4--4--|------------4-----|--2---------------|--2----------------|
--2---------2-----|-------2----------|--2---------------|--2----------------|
------------------|--2----2-------0--|--0---------------|--0----------------|

--0----0--0-------|--0------0-----------|-----------------|---------3-------|
--0----0--0----0--|--0------0-----------|-----------2--0--|---------0--0----|
--x---------------|--x------x-----------|-----------2--0--|---------0--0----|
--2---------------|--2------------------|--2--------2--0--|--0--------------|
--2---------------|--2------------------|--0--------0-----|--x--------------|
--0---------------|--0---------0--3--4--|-----------------|--3--------------|

------------------|------------------|----------0--------|------------------|
--4------4--4--4--|--4----4----4-----|----------0--------|------------------|
--4------4--4--4--|--4----4----4-----|----------x--------|------------------|
--4------4--4--4--|--4----4----4-----|--2----2-----------|----------2-------|
--2---------2-----|--2----2----2-----|--2-------------2--|-------2-----2----|
------------------|--2----2----2--0--|--0----------0-----|--0---------------|

------------------|------------------|------------------|------------------|
------------------|------------------|---------2-----0--|----------0-------|
------------------|------------------|---------2-----0--|----------0-------|
---------2--------|---------2-----0--|--2---------2-----|-------0-------0--|
------------------|--2---------2-----|--0---------0-----|------------------|
--0---------0--0--|--0---------0-----|------------------|--3---------------|

------------------|-----------------|------------------|--0------------0--|
---------4--4--4--|-----------------|---------------0--|--0------0-----0--|
---------4--4--4--|---------4-------|---------x-----x--|--x------x--x-----|
--4------4--4--4--|---------4-------|---------2--------|--2---------2-----|
--2---------------|--2--------------|--2---------------|--2---------------|
------------------|------------2b---|--0---------0-----|--0---------------|

--0------0----0--|--0------0--------|------------0-----|---------3--------|
--0------0----0--|--0------0-----0--|--2------2--2--0--|--0------0--0--0--|
--x--------------|--x------------0--|--2------2--2--0--|--0------0--0--0--|
--2--------------|--2---------2-----|--2---------2--0--|--0---------0-----|
--2--------------|--2---------2-----|--0---------------|--x---------0-----|
--0--------------|--0---------0-----|------------------|--3---------------|

------------------|-------------------|------------------|----------0-------|
--4------4--4--4--|--4----4--4--4--0--|--0------0--0--0--|--0----0--0--0----|
--4------4--4--4--|--4----4--4--4--0--|--x------x--x--x--|--x----x--x--x----|
--4------4--4--4--|--4----4-----4-----|--2---------2-----|--2----2-----2----|
--2---------2-----|--2----------------|--2---------2-----|--2----------2----|
------------------|-------------------|--0---------0-----|--0----------0----|

|---0------0----0--|--0------0--------|------------0-----|---------3--------|
|---0------0----0--|--0------0-----0--|--2------2--2--0--|--0------0--0--0--|
|*--x--------------|--x------------0--|--2------2--2--0--|--0------0--0--0--|
|*--2--------------|--2---------2-----|--2---------2--0--|--0---------0-----|
|---2--------------|--2---------2-----|--0---------------|--x---------0-----|
|---0--------------|--0---------0-----|------------------|--3---------------|

------------------|-------------------|------------------|----------0-------|
--4------4--4--4--|--4----4--4--4--0--|--0------0--0--0--|--0----0--0--0----|
--4------4--4--4--|--4----4--4--4--0--|--x------x--x--x--|--x----x--x--x----|
--4------4--4--4--|--4----4-----4-----|--2---------2-----|--2----2-----2----|
--2---------2-----|--2----------------|--2---------2-----|--2----------2----|
------------------|-------------------|--0---------0-----|--0----------0----|

--0------0----0--|--0------0--------|------------0-----|---------3--------|
--0------0----0--|--0------0-----0--|--2------2--2--0--|--0------0--0--0--|
--x--------------|--x------------0--|--2------2--2--0--|--0------0--0--0--|
--2--------------|--2---------2-----|--2---------2--0--|--0---------0-----|
--2--------------|--2---------2-----|--0---------------|--x---------0-----|
--0--------------|--0---------0-----|------------------|--3---------------|

------------------|-------------------|------------------|----------0--------||
--4------4--4--4--|--4----4--4--4--0--|--0------0--0--0--|--0----0--0--0-----||
--4------4--4--4--|--4----4--4--4--0--|--x------x--x--x--|--x----x--x--x----*||
--4------4--4--4--|--4----4-----4-----|--2---------2-----|--2----2-----2----*||
--2---------2-----|--2----------------|--2---------2-----|--2----------2-----||
------------------|-------------------|--0---------0-----|--0----------0-----||

--0------0----0--|--0------0--------|------------0-----|---------3--------|
--0------0----0--|--0------0-----0--|--2------2--2--0--|--0------0--0--0--|
--x--------------|--x------------0--|--2------2--2--0--|--0------0--0--0--|
--2--------------|--2---------2-----|--2---------2--0--|--0---------0-----|
--2--------------|--2---------2-----|--0---------------|--x---------0-----|
--0--------------|--0---------0-----|------------------|--3---------------|

------------------|-------------------|------------------|----------0-------|
--4------4--4--4--|--4----4--4--4--0--|--0------0--0--0--|--0----0--0--0----|
--4------4--4--4--|--4----4--4--4--0--|--x------x--x--x--|--x----x--x--x----|
--4------4--4--4--|--4----4-----4-----|--2---------2-----|--2----2-----2----|
--2---------2-----|--2----------------|--2---------2-----|--2----------2----|
------------------|-------------------|--0---------0-----|--0----------0----|

--0------0----0--|--0------0--------|------------0-----|---------3--------|
--0------0----0--|--0------0-----0--|--2------2--2--0--|--0------0--0--0--|
--x--------------|--x------------0--|--2------2--2--0--|--0------0--0--0--|
--2--------------|--2---------2-----|--2---------2--0--|--0---------0-----|
--2--------------|--2---------2-----|--0---------------|--x---------0-----|
--0--------------|--0---------0-----|------------------|--3---------------|

------------------|-------------------|------------------|----------0-------|
--4------4--4--4--|--4----4--4--4--0--|--0------0--0--0--|--0----0--0--0----|
--4------4--4--4--|--4----4--4--4--0--|--x------x--x--x--|--x----x--x--x----|
--4------4--4--4--|--4----4-----4-----|--2---------2-----|--2----2-----2----|
--2---------2-----|--2----------------|--2---------2-----|--2----------2----|
------------------|-------------------|--0---------0-----|--0----------0----|

--0------0----0--|--0------0--------|------------0-----|---------3--------|
--0------0----0--|--0------0-----0--|--2------2--2--0--|--0------0--0--0--|
--x--------------|--x------------0--|--2------2--2--0--|--0------0--0--0--|
--2--------------|--2---------2-----|--2---------2--0--|--0---------0-----|
--2--------------|--2---------2-----|--0---------------|--x---------0-----|
--0--------------|--0---------0-----|------------------|--3---------------|

------------------|-------------------|------------------|----------0-------|
--4------4--4--4--|--4----4--4--4--0--|--0------0--0--0--|--0----0--0--0----|
--4------4--4--4--|--4----4--4--4--0--|--x------x--x--x--|--x----x--x--x----|
--4------4--4--4--|--4----4-----4-----|--2---------2-----|--2----2-----2----|
--2---------2-----|--2----------------|--2---------2-----|--2----------2----|
------------------|-------------------|--0---------0-----|--0----------0----|

--0------0----0--|--0------0--------|------------0-----|---------3--------|
--0------0----0--|--0------0-----0--|--2------2--2--0--|--0------0--0--0--|
--x--------------|--x------------0--|--2------2--2--0--|--0------0--0--0--|
--2--------------|--2---------2-----|--2---------2--0--|--0---------0-----|
--2--------------|--2---------2-----|--0---------------|--x---------0-----|
--0--------------|--0---------0-----|------------------|--3---------------|

------------------|-------------------|------------------|------------------|
--4------4--4--4--|--4----4--4--4--0--|--0------0--0--0--|------------------|
--4------4--4--4--|--4----4--4--4--0--|--x------x--x--x--|------------------|
--4------4--4--4--|--4----4-----4-----|--2---------2-----|------------------|
--2---------2-----|--2----------------|--2---------2-----|----------2-------|
------------------|-------------------|--0---------0-----|--0----0-----0----|

-----------------|------------------|-----------------|------------------|
-----------------|------------------|-----------------|------------------|
-----------------|------------------|---------2-------|----------0-------|
-----------------|------------------|------------2----|-------0----------|
-----------------|--2-------2-------|--0---------0----|-------------0----|
--0----0----0----|-------0-----0----|-----------------|--3---------------|

-------------------|------------------|--------------0--|-------------------|
-------------------|------------------|---------0----0--|-------------------|
----------4-----4--|----------4-------|-----------------|-------------------|
-------4-----4-----|-------4--4-------|-----------------|--2-------2-----2--|
--2----------------|------------------|-----------------|--2----2-----2-----|
-------------------|--2----------2b---|--0--------------|--0----------------|

-------------------|-------------------|------------------|---------3-------|
-------------------|-------------------|---------2-----0--|--0------0--0----|
-------------------|-------------------|--2------2-----0--|--0------0--0----|
--2-------2-----2--|----------2-----2--|--2---------2-----|--0--------------|
--2----2-----2-----|--2----2-----2-----|--0---------0-----|--x--------------|
--0----------------|--0----------0-----|------------------|--3--------------|

-----------------|-----------------|---------0--------|--0-------0-----0--|
--4------4--4----|--4------4--4----|--0------0--0--0--|--0-------0-----0--|
--4------4--4----|--4------4--4----|--x---------x--x--|--x-------x-----x--|
--4---------4----|--4---------4----|--2---------2--2--|--2----2-----2-----|
--2--------------|--2--------------|--2---------2-----|--2----2-----2-----|
-----------------|-----------------|--0---------0-----|--0----0-----0-----|

--0------0----0--|--0------0--------|------------0-----|---------3--------|
--0------0----0--|--0------0-----0--|--2------2--2--0--|--0------0--0--0--|
--x--------------|--x------------0--|--2------2--2--0--|--0------0--0--0--|
--2--------------|--2---------2-----|--2---------2--0--|--0---------0-----|
--2--------------|--2---------2-----|--0---------------|--x---------0-----|
--0--------------|--0---------0-----|------------------|--3---------------|

------------------|-------------------|------------------|----------0-------|
--4------4--4--4--|--4----4--4--4--0--|--0------0--0--0--|--0----0--0--0----|
--4------4--4--4--|--4----4--4--4--0--|--x------x--x--x--|--x----x--x--x----|
--4------4--4--4--|--4----4-----4-----|--2---------2-----|--2----2-----2----|
--2---------2-----|--2----------------|--2---------2-----|--2----------2----|
------------------|-------------------|--0---------0-----|--0----------0----|

--0------0----0--|--0------0--------|------------0-----|---------3--------|
--0------0----0--|--0------0-----0--|--2------2--2--0--|--0------0--0--0--|
--x--------------|--x------------0--|--2------2--2--0--|--0------0--0--0--|
--2--------------|--2---------2-----|--2---------2--0--|--0---------0-----|
--2--------------|--2---------2-----|--0---------------|--x---------0-----|
--0--------------|--0---------0-----|------------------|--3---------------|

------------------|-------------------|------------------|----------0-------|
--4------4--4--4--|--4----4--4--4--0--|--0------0--0--0--|--0----0--0--0----|
--4------4--4--4--|--4----4--4--4--0--|--x------x--x--x--|--x----x--x--x----|
--4------4--4--4--|--4----4-----4-----|--2---------2-----|--2----2-----2----|
--2---------2-----|--2----------------|--2---------2-----|--2----------2----|
------------------|-------------------|--0---------0-----|--0----------0----|

--0------0----0--|--0------0--------|------------0-----|---------3--------|
--0------0----0--|--0------0-----0--|--2------2--2--0--|--0------0--0--0--|
--x--------------|--x------------0--|--2------2--2--0--|--0------0--0--0--|
--2--------------|--2---------2-----|--2---------2--0--|--0---------0-----|
--2--------------|--2---------2-----|--0---------------|--x---------0-----|
--0--------------|--0---------0-----|------------------|--3---------------|

------------------|-------------------|------------------|----------0-------|
--4------4--4--4--|--4----4--4--4--0--|--0------0--0--0--|--0----0--0--0----|
--4------4--4--4--|--4----4--4--4--0--|--x------x--x--x--|--x----x--x--x----|
--4------4--4--4--|--4----4-----4-----|--2---------2-----|--2----2-----2----|
--2---------2-----|--2----------------|--2---------2-----|--2----------2----|
------------------|-------------------|--0---------0-----|--0----------0----|

--0------0----0--|--0------0--------|------------0-----|---------3--------|
--0------0----0--|--0------0-----0--|--2------2--2--0--|--0------0--0--0--|
--x--------------|--x------------0--|--2------2--2--0--|--0------0--0--0--|
--2--------------|--2---------2-----|--2---------2--0--|--0---------0-----|
--2--------------|--2---------2-----|--0---------------|--x---------0-----|
--0--------------|--0---------0-----|------------------|--3---------------|

----------------|------------------|------------------------------|
--4----------4--|------------------|------------------------------|
--4----------4--|------------------|------------------------------|
--4----------4--|------------------|------------------------------|
--2----------2--|------------------|------------------------------|
----------------|------------------|------------------------------|

------------------|--0------0--0--0--|--0------0--0--0--|--0----0--0--0--0--|
------------------|--0------0--0--0--|--0------0--0--0--|--0----0--0--0--0--|
------------------|--2------2--2--2--|--2------2--2--2--|--2----2--2--2--2--|
------------------|--2------2--2--2--|--2------2--2--2--|--2----2--2--2--2--|
------------------|--2------2--2--2--|--2------2--2--2--|--2----2--2--2--2--|
------------------|--0------0--0--0--|--0------0--0--0--|--0----0--0--0--0--|

--0----0--0--0--0--|--0------0----0--|--0------0--------|------------0-----|
--0----0--0--0--0--|--0------0----0--|--0------0-----0--|--2------2--2--0--|
--2----2--2--2--2--|--x--------------|--x------------0--|--2------2--2--0--|
--2----2--2--2--2--|--2--------------|--2---------2-----|--2---------2--0--|
--2----2--2--2--2--|--2--------------|--2---------2-----|--0---------------|
--0----0--0--0--0--|--0--------------|--0---------0-----|------------------|

---------3--------|------------------|-------------------|------------------|
--0------0--0--0--|--4------4--4--4--|--4----4--4--4--0--|--0------0--0--0--|
--0------0--0--0--|--4------4--4--4--|--4----4--4--4--0--|--x------x--x--x--|
--0---------0-----|--4------4--4--4--|--4----4-----4-----|--2---------2-----|
--x---------0-----|--2---------2-----|--2----------------|--2---------2-----|
--3---------------|------------------|-------------------|--0---------0-----|

----------0-------|--0------0----0--|--0------0--------|------------0-----|
--0----0--0--0----|--0------0----0--|--0------0-----0--|--2------2--2--0--|
--x----x--x--x----|--x--------------|--x------------0--|--2------2--2--0--|
--2----2-----2----|--2--------------|--2---------2-----|--2---------2--0--|
--2----------2----|--2--------------|--2---------2-----|--0---------------|
--0----------0----|--0--------------|--0---------0-----|------------------|

---------3--------|------------------|-----------------|--0----------------||
--0------0--0--0--|--4------4--4--4--|--4----4----4----|--0----------------||
--0------0--0--0--|--4------4--4--4--|--4----4----4----|-------------------||
--0---------0-----|--4------4--4--4--|--4----4----4----|--2----------------||
--x---------0-----|--2---------2-----|--2----2----2----|--2----------------||
--3---------------|------------------|-----------------|--0----------------||
 
 
Nirvana - Where Did You Sleep Last Night :: indexed at Ultimate Guitar.
Where Did You Sleep Last Night tabs @ 911Tabs

About the artist behind Where Did You Sleep Last Night:

Nirvana was an American rock band that was formed by singer/guitarist Kurt Cobain and bassist Krist Novoselic in Aberdeen, Washington. Nirvana went through a succession of drummers, the longest-lasting being Dave Grohl, who joined the band in 1990.

With the lead single "Smells Like Teen Spirit" from the group's second album Nevermind (1991), Nirvana entered into the mainstream, bringing along with it a subgenre of alternative rock called grunge. Other Seattle grunge bands such as Alice in Chains, Pearl Jam, and Soundgarden also gained popularity, and, as a result, alternative rock became a dominant genre on radio and music television in the United States during the early-to-middle 1990s. As Nirvana's frontman, Kurt Cobain found himself referred to in the media as the "spokesman of a generation", with Nirvana the "flagship band" of "Generation X".[3] Cobain was uncomfortable with the attention and placed his focus on the band's music, challenging the band's audience with its third studio album In Utero (1993).

Nirvana's brief run ended with Cobain's death in April 1994, but the band's popularity continued in the years that followed. More than eight years later, "You Know You're Right", an unfinished demo from the band's final recording session, topped radio playlists around the world. Since their debut, the band has sold over fifty million albums worldwide.[4] Nirvana are often credited with being one of the most popular and important rock bands of recent years.[5]

Indexed at Wikipedia.

Show us your talent, perform Where Did You Sleep Last Night!

Here you can post a video or audio performance. Tell me more ...
Where can we find your performance? Tell me more ...
Your comment:
Please, log in to post your performance.