Artists by letter: A B C D E F G H I J K L M N O P Q R S T U V W X Y Z 0-9

The Man Who Sold The World (ver 3) - Nirvana


 
The Man Who Sold The World
Capo 4th Fret

[Intro]
e|-------------------|---------------------|---------------------|--------------------|----------------------|
B|-------------------|---------------------|---------------------|--------------------|----------------------|
G|-------------------|---------------------|---------------------|--------------------|----------------------|
D|-2-2-2-0-2h3p0-2-0-|---2-2-2-0-2h3p0-2-0-|---2-2-2-0-2h3p0-2-0-|--2-2-2-0-2h3p0-2-0-|---2-2-2-0-2h3p0-2-0-2|
A|-------------------|---------------------|---------------------|--------------------|----------------------|
E|-------------------|---------------------|---------------------|--------------------|----------------------|

[Verse 1]
                   E
We passed upon the stair
                    Am
We spoke of was and when
                  E
Although I wasn't there
                  Am
He said I was his friend
                E
Which came as a surprise
                 Am
I spoke into his eyes
                   E
I thought you died alone
                 Am
A long long time ago
 
[Chorus]
   E
Oh no, not me
   F          Am
We never lost control
       E       Am
You're face to face

[Instrumental]
e|-------------------|---------------------|---------------------|--------------------|----------------------|
B|-------------------|---------------------|---------------------|--------------------|----------------------|
G|-------------------|---------------------|---------------------|--------------------|----------------------|
D|-2-2-2-0-2h3p0-2-0-|---2-2-2-0-2h3p0-2-0-|---2-2-2-0-2h3p0-2-0-|--2-2-2-0-2h3p0-2-0-|---2-2-2-0-2h3p0-2-0-2|
A|-------------------|---------------------|---------------------|--------------------|----------------------|
E|-------------------|---------------------|---------------------|--------------------|----------------------|

[Verse 2]
                        E
I laughed and shook his hand
                     Am
And made my way back home
                       E
I searched for foreign land
                      Am
For years and years I roamed
                   E
I gazed a gazeless stare
                    Am
We walked a million years
                 E
I must have died alone 
                  Am
A long, long time ago

[Chorus](2x)
    E
Who knows?
Not me
  F          Am
I never lost control
       E       Am
You're face to face

With the man who sold the world

(Last time on chorus play the intro riff again)

(Personally I finish the song with)

 (7x)         (E)
e|---------------------|
B|---------------------|
G|---------------------|
D|---2-2-2-0-2h3p0-2-0-|
A|---------------------|
E|---------------------|

              (Am)
e|-----------------------|    
B|-----------------------|
G|--------------3b-3p1---|
D|---2-2-2-0-2h3------2--|
A|-----------------------|
E|-----------------------|

              (E)
e|---------------------|
B|---------------------|
G|---------------------|
D|---2-2-2-0-2h3p0-2-0-|
A|---------------------|
E|---------------------|

             (Am)
e|-----------------------|    
B|-----------------------|
G|--------------3b-3p1---|
D|---2-2-2-0-2h3------2--|
A|-----------------------|
E|-----------------------|

             (E)                                           (Am)
e|---------------------|---------------------|----------------------|-----------------|
B|---------------------|---------------------|----------------------|-----------------|
G|---------------------|---------------------|----------------------|-----------------|
D|---2-2-2-0-2h3p0-2-0-|---2-2-2-0-2h3p0-2-0-|---2-2-2-0-2h3p0-2-0-2|-----------------|
A|---------------------|---------------------|----------------------|-----------------|
E|---------------------|---------------------|----------------------|-----------------|
 
 
Nirvana - The Man Who Sold The World :: indexed at Ultimate Guitar.
The Man Who Sold The World tabs @ 911Tabs

About the artist behind The Man Who Sold The World:

Nirvana was an American rock band that was formed by singer/guitarist Kurt Cobain and bassist Krist Novoselic in Aberdeen, Washington. Nirvana went through a succession of drummers, the longest-lasting being Dave Grohl, who joined the band in 1990.

With the lead single "Smells Like Teen Spirit" from the group's second album Nevermind (1991), Nirvana entered into the mainstream, bringing along with it a subgenre of alternative rock called grunge. Other Seattle grunge bands such as Alice in Chains, Pearl Jam, and Soundgarden also gained popularity, and, as a result, alternative rock became a dominant genre on radio and music television in the United States during the early-to-middle 1990s. As Nirvana's frontman, Kurt Cobain found himself referred to in the media as the "spokesman of a generation", with Nirvana the "flagship band" of "Generation X".[3] Cobain was uncomfortable with the attention and placed his focus on the band's music, challenging the band's audience with its third studio album In Utero (1993).

Nirvana's brief run ended with Cobain's death in April 1994, but the band's popularity continued in the years that followed. More than eight years later, "You Know You're Right", an unfinished demo from the band's final recording session, topped radio playlists around the world. Since their debut, the band has sold over fifty million albums worldwide.[4] Nirvana are often credited with being one of the most popular and important rock bands of recent years.[5]

Indexed at Wikipedia.

Show us your talent, perform The Man Who Sold The World!

Here you can post a video or audio performance. Tell me more ...
Where can we find your performance? Tell me more ...
Your comment:
Please, log in to post your performance.