Artists by letter: A B C D E F G H I J K L M N O P Q R S T U V W X Y Z 0-9

 
Ya Tebya Nikogda Ne Zabudu
Romans: "Ya Tebya Nikogda Ne Zabudu" (Seni Asla Unutmayacagim)





(Intro)
e|-----------------------0--|-----------------------0--|
B|--------------0-----------|--------------0-----------|
G|--------0-----------0-----|--------0-----------0-----| x 2
D|-----------4-----4--------|-----------4-----4--------|
A|-----2--------------------|-----2--------------------|
E|--0-----------------------|--0-----------------------|

(Singing starts)
e|-----------------------0--|
B|--------------0-----------|
G|--------0-----------0-----| x 2
D|-----------4-----4--------|
A|-----2--------------------|
E|--0-----------------------|

e|--------------------------|--------------------------|
B|--------------1--------0--|--------------1--------0--|
G|--------2-----------2-----|--------2-----------2-----| x 2
D|-----1-----1-----1--------|-----1-----1-----1--------|
A|--2-----------------------|--2-----------------------|
E|--------------------------|--------------------------|

e|-----------------------0--|
B|--------------0-----------|
G|--------0-----------0-----| x 2
D|-----------4-----4--------|
A|-----2--------------------|
E|--0-----------------------|

e|--------------------------|--------------0--------2--|
B|--------------0--------1--|--------3-----------3-----|
G|--------0-----------0-----|-----2-----2-----2--------|
D|-----2-----2-----2--------|--0-----------------------|
A|--3-----------------------|--------------------------|
E|--------------------------|--------------------------|

e|-----------------------3--|
B|--------------0-----------|
G|--------0-----------0-----| x 2
D|-----0-----0-----0--------|
A|--------------------------|
E|--3-----------------------|

e|--------------------------|--------------------------|
B|--------------1--------0--|--------------1--------0--|
G|--------2-----------2-----|--------2-----------2-----|
D|-----2-----2-----2--------|-----1-----1-----1--------|
A|--0-----------------------|--2-----------------------|
E|--------------------------|--------------------------|

e|-----------------------0--|
B|--------------0-----------|
G|--------0-----------0-----| x 2
D|-----------4-----4--------|
A|-----2--------------------|
E|--0-----------------------|

Ty myenya na rassvyetye razbudish, 
Provodit nyeobutaya vyydyesh 
Ty myenya nikogda nye zabudyesh 
Ty myenya nikogda nye uvidish

Zaslonivshi tyebya ot prostudy 
Ya podumayu Bozhye Vsyevyshniy 
Ya tyebya nikogda nye zabudu 
Ya tyebya nikogda nye uvizhu

Nye migayut, slyezyatsya ot vyetra 
Byez nadyezhdy kariye vishni 
Vozvrashchatsya plokhaya primyeta 
Ya tyebya nikogda nye uvizhu

I kachnutsya byessmyslyennoy vysyu 
Para fraz zalyetyevshikh otsyuda 
Ya tyebya nikogda nye uvizhu 
Ya tyebya nikogda nye zabudu

I kachnutsya byessmyslyennoy vysyu 
Para fraz zalyetyevshikh otsyuda 
Ya tyebya nikogda nye uvizhu 
Ya tyebya nikogda nye zabudu

Ya znayu, chyem skoryeye uyedyesh, 
Tyem my skoryeye vyechno budyem vmyestye 
Kak nye chtob uyezzhal ty 
Kak ya khochu chtob ty skoryey uyekhal 
Mnye kazhyetsya, chto ya tyebya tyeryayu

I kachnutsya byessmyslyennoy vysyu 
Para fraz zalyetyevshikh otsyuda 
Ya tyebya nikogda nye uvizhu 
Ya tyebya nikogda nye zabudu

Ya tyebya nikogda nye uvizhu 
Ya tyebya nikogda nye zabudu

(This Version)
http://www.youtube.com/watch?v=KIRvZmuZLZU

(Alternate Version)
http://www.youtube.com/watch?v=2aWU4KzvBsU

mariaemre @
BOYAR.CO.UK 
 
 
Nikolai Karachentsov - Ya Tebya Nikogda Ne Zabudu :: indexed at Ultimate Guitar.
Ya Tebya Nikogda Ne Zabudu tabs @ 911Tabs
People who played Nikolai Karachentsov - Ya Tebya Nikogda Ne Zabudu also played these songs by Nikolai Karachentsov:
Ya Tebya Nikogda Ne Zabudu Tab

Quick tip, so you can enjoy Ya Tebya Nikogda Ne Zabudu even more:

If you spend just 10 seconds to register, you will be able to comment on all the chords and tabs and rate them. You will as well be able to comment on videos of your fellow guitarists and give them ratings from 1 to 5 ... And - of course - you can share your own videos with them and see what they think of you. :)
Click here to join us!

Show us your talent, perform Ya Tebya Nikogda Ne Zabudu!

Here you can post a video or audio performance. Tell me more ...
Where can we find your performance? Tell me more ...
Your comment:
Please, log in to post your performance.