Artists by letter: A B C D E F G H I J K L M N O P Q R S T U V W X Y Z 0-9

 
Antidepressants
-------------------------------------------------------------------------------
                             Antidepressants - Night Verses
-------------------------------------------------------------------------------
Tabbed by: Matthew Dana
E-mail: [email protected]

Tuning:CGCFAD

************************************

| /   slide up
| \   slide down
| h   hammer-on
| p   pull-off
| ~   vibrato
| +   harmonic
| x   Mute note
| b   Bend
| pb  Pre-bend
| br  Bend release
| pbr Pre-bend release
| brb Bend release bend

************************************
INTRO:
D|----------B15----------B14------------------B15---------B14----------------|
A|---------------------------------------------------------------------------|
F|---------------------------------------------------------------------------|
C|---------------------------------------------------------------------------|
G|---------------------------------------------------------------------------|
C|-12--14--------12--14-------12--14--12--14-------12--14--------------------|

D|---------------------------------------------------------------------------|
A|---------------------------------------------------------------------------|
F|---------------------------------------------------------------------------|
C|---------------------------------------------------------------------------|
G|---------------10-H12-H14--------------------------------------------------|
C|---10-H12-H14--------------------------------------------------------------|
 
D|---------17B---------14B----------------17B----------14B-------------------|
A|---------------------------------------------------------------------------|
F|---------------------------------------------------------------------------|
C|---------------------------------------------------------------------------|
G|---------------------------------------------------------------------------|
C|-12--14-------12--14-----12--14--12--14------12--14------------------------|

D|---------------------------------------------------------------------------|
A|---------------------------------------------------------------------------|
F|---------------------------------------------------------------------------|
C|---------------------------------------------------------------------------|
G|--------------10-H12-H14------------10-H12-H14-----------------------------|
C|---10-H12-H14------------10-H12-H14----------------------------------------|

D|-------15B-------14B------------------15B---------14B----------------------|
A|---------------------------------------------------------------------------|
F|---------------------------------------------------------------------------|
C|---------------------------------------------------------------------------|
G|---------------------------------------------------------------------------|
C|-12-14-----12--14------12--14--12--14------12--14--------------------------|

D|---------------------------------------------------------------------------|
A|---------------------------------------------------------------------------|
F|---------------------------------------------------------------------------|
C|---------------------------------------------------------------------------|
G|---------------10-H12-H14--------------------------------------------------|
C|---10-H12-H14--------------------------------------------------------------|
 
D|---------17B---------14B----------------17B-----19--19-19B--19--19--19--19-|
A|---------------------------------------------------------------------------|
F|---------------------------------------------------------------------------|
C|---------------------------------------------------------------------------|
G|---------------------------------------------------------------------------|
C|-12--14-------12--14-----12--14--12--14------------------------------------|

VERSE:  
D|---------------------------------------------------------------------------|
A|---------------------------------------------------------------------------|
F|--------------7-/-10---9--9--7-/-10---9--9--7-/-10---9--9--7-/-10---9--9---|
C|---12---------7-/-10---9--9--7-/-10---9--9--7-/-10---9--9--7-/-10---9--9---|X2
G|---10-(X24)---5-/-8----7--7--5-/-8----7--7--5-/-8----7--7--5-/-8----7--7---|
C|---10----------------------------------------------------------------------|

CHORUS:
D|---------------------------------------------------2------------------------|
A|------8-----8-----8-----8-------4-----4-----4----------5---0----------------|
F|------9-----9-----9-----9-------3-----3-----3-------------------------------|
C|---7-----7-----7-----7-------2-----2-----2----------------------------------|
G|---7-----7-----7-----7-------2-----2-----2----------------------------------|
C|---7-----7-----7-----7-------2-----2-----2----------------------------------|

D|-------------------------------------------------------------2--------------|
A|------8-----8-----8-----8------------------5--------------------------------|
F|------9-----9-----9-----9-------4B------2---------4B------2-----------------|
C|---7-----7-----7-----7-------2-------5---------2-------5--------------------|
G|---7-----7-----7-----7-------2-----------------2----------------------------|
C|---7-----7-----7-----7-------2-----------------2----------------------------|

D|---------------------------------------------------2------------------------|
A|------8-----8-----8-----8-------4-----4-----4----------5---0----------------|
F|------9-----9-----9-----9-------3-----3-----3-------------------------------|
C|---7-----7-----7-----7-------2-----2-----2----------------------------------|
G|---7-----7-----7-----7-------2-----2-----2----------------------------------|
C|---7-----7-----7-----7-------2-----2-----2----------------------------------|

D|----------------------------------------------------------------------------|
A|------8-----8-----8-----8------------------5--------------------------------|
F|------9-----9-----9-----9-------4B------2---------4B------2-----------------|
C|---7-----7-----7-----7-------2-------5---------2-------5--------------------|
G|---7-----7-----7-----7-------2-----------------2----------------------------|
C|---7-----7-----7-----7-------2-----------------2----------------------------|

D|---------------------------------------------------------------------------|
A|---------------------------------------------------------------------------|
F|---------------------------------------------------------------------------|
C|---0---2-------------------------------------------------------------------|
G|---0---2-------------------------------------------------------------------|
C|---0---2-------------------------------------------------------------------|

INTRO, VERSE, CHORUS

BRIDGE:
D|-----------------------------7--7--7--7--7--7------------------------------|
A|-----------------------------8--8--8--8--8--8------------------------------|
F|--7-/-10---9--9--------------9--9--9--9--9--9------------------------------|
C|--7-/-10---9--9--(X-A-LOT)---------------------------0--3--2--2------------|
G|--5-/-8----7--7--------------------------------------0--3--2--2--(X3)------|
C|-----------------------------------------------------0--3--2--2------------|

BREAKDOWN:
D|-------------------7--7--7---------------------7--7--7---------------------|
A|-------------------8--8--8---------------------8--8--8---------------------|
F|-------------------9--9--9---------------------9--9--9---------------------|
C|--0--3--2--2------------------0--3--2--2-----------------------------------|
G|--0--3--2--2-(X3)-------------0--3--2--2-(X3)------------------------------|
C|--0--3--2--2------------------0--3--2--2-----------------------------------|

D|---------------------------------------------------------------------------|
A|---------------------------------------------------------------------------|
F|-----------------7-/-10---9--9 --------------------------------------------|
C|--0--3--2--2-----7-/-10---9--9---------------------------------------------|X3 
G|--0--3--2--2-----5-/-8----7--7---------------------------------------------|
C|--0--3--2--2---------------------------------------------------------------|

D|--7--7--7--7--7--7---------------------------------------------------------|
A|--8--8--8--8--8--8---------------------------------------------------------|
F|--9--9--9--9--9--9---------------------------------------------------------|
C|---------------------------------------------------------------------------|
G|---------------------------------------------------------------------------|
C|---------------------------------------------------------------------------|

CHORUS X2 At the end of the first chorus do a natural harmonic down the 7th 
          on the top 3 strings, then play as normal.

SOLO:
D|---------------------------------------------------------------------------|
A|---15--17----17--17-17---17--17-17--17--17-17------------------------------|
F|-----------------------------------------------19--14--16--16--16-16-------|
C|---------------------------------------------------------------------------|
G|---------------------------------------------------------------------------|
C|---------------------------------------------------------------------------|

D|---15-14-----14----------14------------------------------------------------|
A|---------15-----17-15-17----17--17--17-17--17--17-17--17--17-17------------|
F|---------------------------------------------------------------------------|
C|---------------------------------------------------------------------------|
G|---------------------------------------------------------------------------|
C|---------------------------------------------------------------------------|

D|---------------------------------------------------------------------------|
A|---------------------------------------------------------------------------|
F|---19--14--16--16--16-16---------------------------------------------------|
C|--------------------------17-19-17-16---------16---------------------------|
G|----------------------------------------17-19----19------------------------|
C|---------------------------------------------------------------------------|
PLAY THESE NEXT TWO PARTS TWICE.
D|---------------------------------------------------------------------------|
A|-----------------------17--17--17------------------------------------------|
F|-----------------------------------19--16----------------------------------|
C|---17-16-----19-17--------------------------19-----------------------------|
G|---------------------------------------------------------------------------|
C|---------------------------------------------------------------------------|

D|---------------------------------------------------------------------------|
A|------------------------------------17-------17-------17-------------------|
F|------------------------------16-19----16-19----16-19----------------------|
C|---14-----17-16------19-17-------------------------------------------------|
G|---------------------------------------------------------------------------|
C|---------------------------------------------------------------------------|

D|---------------------------------------------------------------------------|
A|---------------------------------------------------------------------------|
F|------11-12-11-------11-12-11-------11-12-11-------11-9--------------------|
C|---12----------12-12----------12-12----------12-12------12-9---------------|X3
G|---------------------------------------------------------------------------|
C|---------------------------------------------------------------------------|
SAME THING JUST END WITH
D|---------------------------------------------------------------------------|
A|--10P-0-10P-0--------------------------------------------------------------|
F|--------------7-9~---------------------------------------------------------|
C|---------------------------------------------------------------------------|
G|---------------------------------------------------------------------------|
C|---------------------------------------------------------------------------|



 
 
Night Verses - Antidepressants :: indexed at Ultimate Guitar.
Antidepressants tabs @ 911Tabs
People who played Night Verses - Antidepressants also played these songs by Night Verses:
Antidepressants Tab

Quick tip, so you can enjoy Antidepressants even more:

Try out the AutoScroller option ... It scrolls the page for you, so you can totally focus on nailing that solo. You can choose among different speeds using your mouse or your keyboard (keys 0, 1, 2 and 3).

Show us your talent, perform Antidepressants!

Here you can post a video or audio performance. Tell me more ...
Where can we find your performance? Tell me more ...
Your comment:
Please, log in to post your performance.