Artists by letter: A B C D E F G H I J K L M N O P Q R S T U V W X Y Z 0-9

 
India
Intro:

Riff:

   Am        G      D
e|-------------3--(3)-------|x8
B|-------------3--(3)--3-3--|
G|--2--2-------0--(0)--2-2--|
D|--2--2-------0-------0-0--|
A|--0--0-3-2-0-x------------|
E|-------------3------------|

(): notas opcionales


(También se puede hacer sólo los acordes Am, G y D)

Versos (riff o acordes):

Am      G
¡India!
      D       Am
¿Mandarás a pedir
                G     D
que corten mi cabeza?


Am      G
¡India!
     D      Am
¿Pedirás al cíclope
                G       D
que aplaste mi cuerpo?


Estribillo:

Se puede hacer los acordes que se marcan o los acordes en quinta:

   C5  D5   Am
e|-----------(5)--------|
B|-----------(5)--------|
G|--5---7----(5)--------|
D|--5---7---------------|
A|--3---5---------------|
E|----------------------|

(): notas opcionales


C                D
  ¡A tu tribu de locas
                Am
no les tengo miedo!

Am

C            D
  Soy muy valiente
                           Am
¡Soy más fuerte que el trueno!

Am


Se repite los mismos versos y el estribillo.

Después viene un corte:


   C5  D5 D#5 F5  G5
e|------------------------|
B|------------------------|
G|--5---7---8---10---12---|
D|--5---7---8---10---12---|
A|--3---5---6---8----10---|
E|------------------------|


y se repiten el riff o los acordes de los versos hasta el final.
 
 
Los Brujos - India :: indexed at Ultimate Guitar.
India tabs @ 911Tabs
People who played Los Brujos - India also played these songs by Los Brujos:
Kanishka Chords, Piso Liso Chords, El Pececito Chords, Venganza Chords, Sasquatch Chords, India Tab

Quick tip, so you can enjoy India even more:

YourChords.com Guitar Chords and Tabs Archive is currently indexing over 240'000 songs from 21'000+ different artists. And new chords just keep on coming in, so you will surely never run out of them.

Show us your talent, perform India!

Here you can post a video or audio performance. Tell me more ...
Where can we find your performance? Tell me more ...
Your comment:
Please, log in to post your performance.