Artists by letter: A B C D E F G H I J K L M N O P Q R S T U V W X Y Z 0-9

 
Trova De Amor
Esta cancion la hize en otra parte del mi querido Peru,Tumbes ciudad
donde abundan los Sancudos y los choros ajjaja bueno
despues de tiempo publico otra cancion espero les guste y les ayude
Saludos a mi papa,hermanos y sobrinos los Quiero mucho y Para ti Rocio
con mucho amor Te Amo.
Sugerencias Y/o Pedi2 [email protected]

Cuando en una noche triste voy a cantarle a mi amada. (x2)
Am                  C               F     G      C
Las cuerdas de mi guitarra quieren gemir de dolor.
F           G     C                E           Am
Las cuerdas de mi guitarra quieren gemir de dolor.
Am                 C                      E    Am
Es que saben que yo canto a un amor como ninguno.
Am                  C               F   G     C
Es que saben que yo canto a un amor incomparable.
Am                  C               F  G      C
A ese amor que nació en Puquio Allá donde renace el Sol.
F          G            C           E              Am
A ese amor que nació en Puquio Allá donde renace el Sol.
Am                      C                  E       Am

Este es el pike:El pike A es el inicio y el B es un adorno q yo le puse
suena bien y los otros dos tabs de abajo son los siguientes pikes q
siguen

E:-------------------8s12-12-12-15-12-12---------|
B:------8-10-10s12-12-------------------10-10s12-|
G:--9999-----------------------------------------|  A
D:-9---------------------------------------------|
A:-----------------------------------------------|
E:-----------------------------------------------|

E:-----2-3---------------------------------------|
B:-3-5-----3-3-5-3-------------------------------|
G:-----------------4-2---------------------------|  B
D:---------------------5-------------------------|
A:-----------------------------------------------|
E:-----------------------------------------------|


E:-10s12-12-12-12-10-10-10---9--9--9--10------------|
B:------------------------12-10-10-10-12-12-12-10-8-|
G:---------------------------------------12-12-11-9-|
D:--------------------------------------------------|
A:--------------------------------------------------|
E:--------------------------------------------------|

E:-------------------10-10-10-12-----------------|
B:------8-10-10s12-12-----------12-12-10-8-------|
G:--9999------------------------12-12-11-9-------|
D:-9---------------------------------------------|
A:-----------------------------------------------|
E:-----------------------------------------------|


Quisiera decirle al mundo Que eres todo para mí. (x2)
Am                 C               F    G    C

Mi alegría mi tristeza, Mi pasión y frenesí.
F         G        C              E      Am
Mi alegría mi tristeza, Mi pasión y frenesí.
Am             C                     E   Am

Desde el rincón más lejano
F                     G C
Yo por ti he de volver
F                  G C
Tan solamente por quererte
C                  D    C
Por adorarte paisana mía. (x2)
             E       Am

Tan solamente por quererte
C                  D    C
Por adorarte Ayacuchana.
                   E  Am

                                           
 
 
Los Apus - Trova De Amor :: indexed at Ultimate Guitar.
Trova De Amor tabs @ 911Tabs

Quick tip, so you can enjoy Trova De Amor even more:

If you don't really know how to deal with "Absus4" chord and his equally confusing brothers, just put the mouse cursor over them and you will be shown a helpful chord diagram.

Show us your talent, perform Trova De Amor!

Here you can post a video or audio performance. Tell me more ...
Where can we find your performance? Tell me more ...
Your comment:
Please, log in to post your performance.