Artists by letter: A B C D E F G H I J K L M N O P Q R S T U V W X Y Z 0-9

 
Perfect World
Perfect World
-------------
        by Liz Phair off the Whitechocolatespaceegg Album
        transcribed by Marek Yanchurak ([email protected])

| 1-&-2-&-3-&-4-&-|
        
E|---0---0---0---0-|---0---0---0---0-|---0---0---0---0-|---0---0---0---0-|
B|-----------------|-----------------|-----------------|-----------------|
G|-----------------|-----------------|-----------------|-----------------|
D|-----------------|-----------------|-----------------|-----------------|
A|-----------------|-----------------|-----------------|-----------------|
E|-0---0---0---0---|-0---0---0---0---|-0---0---0---0---|-0---0---0---0---|

What a pretty life you have        oh boy
it's a

E|---0---0---0---0-|---0---0---0---0-|---0---0---0---0-|---0---0---0---0-|
B|-----------------|-----------------|-----------------|-----------------|
G|-----------------|-----------------|-----------------|-------------7---|
D|-----------------|-----------------|-----------------|-----6---7-------|
A|-----4---5---9---|-7---7---7---7---|-7---7---7---7---|-7---------------|
E|-5---------------|-----------------|-----------------|-----------------|

pretty life you have, and I would need a map just so I could navigate the
back yard

E|---0---0---0---0-|---0---0---0---0-|---0---0---0---0-|---4---4---5---5-|
B|---5---5---5---5-|---4---4---4---4-|---3---3---3---3-|-----------------|
G|-----------------|-----------------|-----------------|-----------------|
D|-X---X---X---X---|-X---X---X---X---|-X---X---X---X---|-X---X---X---X---|
A|-----------------|-----------------|-----------------|-----------------|
E|-----------------|-----------------|-----------------|-----------------|

home is very      ordinary          I   know I  was   born to lead a

E|---0---0---7---7-|---5---5---5---0-|---0---0---0---0-|---0---0---0---0-|
B|-----------------|-----------------|-----------------|-----------------|
G|-----------------|-----------------|-----------------|-----------------|
D|-----------------|-----------------|---------7-------|---------7-------|
A|-----------------|-----------------|-----7-------7---|-----7-------7---|
E|-7---7---7---7---|-5---5---5---5---|-0---------------|-0---------------|

Double life  of  murder, strife and misery                   and

x2
E|---0---0---0---0-|---0---0---0---0-|-----------------|-----------------|
B|-----------------|-----------------|  -----0---7-----|-5---------------|
G|-----------------|-----------------|* -7-----------7-|--------------- *|
D|---------5-------|---------7---7---|  ---------------|-----6-7-9-7-6-7 |
A|-----7-------7---|-----7-----------|* ---------------|--------------- *|
E|-8---------------|-5---------------|-7---7---7---7---|-----0-0-0-0-0-0-|

when I find it    I know I'll make 1. sense of me
                                      2.                        I want to be

x5
E|-----0-------0-------0-------0-|-----0-------0-------0-------0-|
B|-------------------------------|-------------------------------|
G|* -----------------------------|----------------------------- *|
D|  -----------------------------|-----------------------------  |
A|* -----------------------------|----------------------------- *|
E|-5-------5-------7-------7-----|-12------12------9-------9-----|

1. Cool,           Tall,             vulnerable  and lusciuous
2. I would have it all     if I    only  had this  much, No need for
3. Lucifer    to   fall    if he   learned to keep his mouth shut
4. Be involved,    be involved,    be involved,    be involved, I would
5. be            involved     with you

x2
E|---0---0---0---0-|---0---0---0---0-|---0---0---0---0-|---0---0---0---0-|
B|-----------------|-----------------|-----------------|-----------------|
G|-----------------|-----------------|* ---------------|--------------- *|
D|-----------------|-----------------|  -----------6---|---------------  |
A|-----------------|-----------------|* ---6---7-------|-9---9---7---7- *|
E|-5---5---7---7---|-0---0---0---0---|-7---------------|-----------------|

Ooooohhhhhh       I know      the  1. girls      that live inside your
                                      2. world      just sitting next to

x4
E|---0---0---0---0-|---0---0---0---0-|---0---0---0---0-|---0---0---0---0-|
B|-----------------|-----------------|-----------------|-----------------|
G|-----------------|-----------------|* ---------------|--------------- *|
D|-------------6---|---------9---9---|  ---------------|---------------  |
A|-----6---7-------|-9---9---------0-|* ---------------|--------------- *|
E|-7---------------|-----------------|-5---5---7---7---|-12--12--9---9---|

mortal makes their skin crawl, I want to be...

x5
E|---0---0---0---0-|---0---0---0---0-|---0---0---0---0-|
B|-----------------|-----------------|-----------------|
G|-----------------|* ---------------|--------------- *|
D|-----------------|  ---------------|---------------  |
A|-----------------|* ---------------|--------------- *|
E|-5---5---7---7---|-5---5---7---7---|-12--12--9---9---|



E|---0---0---0---0-|---0-------------||
B|-----------------|-----------------||
G|-----------------|-----------------||
D|-----------------|-----------------||
A|-----------------|-----------------||
E|-5---5---7---7---|-12--------------||




 
 
Liz Phair - Perfect World :: indexed at Ultimate Guitar.
Perfect World tabs @ 911Tabs
People who played Liz Phair - Perfect World also played these songs by Liz Phair:
Hwc Chords, Table For One Chords, Somebodys Miracle Chords, Glory Tab, Everything To Me Chords, Why Cant I Chords

Quick tip, so you can enjoy Perfect World even more:

After the registration (which takes just 10 seconds, remember?) you will be able to use your profile - your very own piece of YourChords.com.

Show us your talent, perform Perfect World!

Here you can post a video or audio performance. Tell me more ...
Where can we find your performance? Tell me more ...
Your comment:
Please, log in to post your performance.