Artists by letter: A B C D E F G H I J K L M N O P Q R S T U V W X Y Z 0-9

 
Ant In Alaska
[Intro and Verse]

e|---------------------------------------------------------------------------|
B|---------------------------------------------------------------------------|
G|0---0---0---0-----------2--------------------------------------------------| x6
D|----------------3---3-------3----------------------------------------------|
A|--3---3---3---3---3---3---3---3--------------------------------------------|
E|---------------------------------------------------------------------------|
Call me when you think the coast is clear
I've been hiding out almost a year


e|---------------------------------------------------------------------------|
B|---------------------------------------------------------------------------|
G|---------------------------------------------------------------------------| x2
D|--2---2---2---2------------------------------------------------------------|
A|----3---3---3---3---3---3---3---3------------------------------------------|
E|------------------1---1---1---1--------------------------------------------|
Is there something wrong?
What's taking you so long?


e|---------------------------------------------------------------------------|
B|---------------------------------------------------------------------------|
G|---------------------------------------------------------------------------|
D|----0---0---0---0---3---3--------------------------------------------------|
A|--------------------------2--3--2--3---------------------------------------|
E|--3---3---3---3---1---1----------------------------------------------------|
Yeah, I know it's not easy



[Verse 2]

e|---------------------------------------------------------------------------|
B|---------------------------------------------------------------------------|
G|0---0---0---0-----------2--------------------------------------------------| x3
D|----------------3---3-------3----------------------------------------------|
A|--3---3---3---3---3---3---3---3--------------------------------------------|
E|---------------------------------------------------------------------------|
You said if I waited it'd pay off 
But my eyes are growing wild and my body's gone soft 


e|---------------------------------------------------------------------------|
B|---------------------------------------------------------------------------|
G|---------------------------------------------------------------------------| x2
D|--2---2---2---2------------------------------------------------------------|
A|----3---3---3---3---3---3---3---3------------------------------------------|
E|------------------1---1---1---1--------------------------------------------|
Is there something wrong?
What's taking you so long?


e|---------------------------------------------------------------------------|
B|---------------------------------------------------------------------------|
G|---------------------------------------------------------------------------|
D|----0---0---0---0---3---3--------------------------------------------------|
A|--------------------------2--3--2--3---------------------------------------|
E|--3---3---3---3---1---1----------------------------------------------------|
And yeah, I know it's not easy 


[Bridge]

e|-----------------------------------------------------------------------------|
B|----------------------------------------------------6---6---6---6---5---5---5|
G|----0---0---0---0---3---3---3---3---2---2---2---2----------------------------|
D|-----------------------------------------------------------------------------|
A|--3---3---3---3---3---3---3---3---3---3---3---3---3---3---3---3---3---3---3--|
E|-----------------------------------------------------------------------------|

e|---------------------------------------------------------------------------|
B|--5---5---5---5---5--------------------------------------------------------|
G|--5---5---5---5---5--------------------------------------------------------|
D|--5---5---5---5---5--------------------------------------------------------|
A|--3---3---3---3---3--------------------------------------------------------|
E|----3---3---3---3-3--------------------------------------------------------|


[Verse 3]

C                 F                 C
You said I should let go of your hand
    C             F           C
But I don't even know if I can

e|---------------------------------------------------------------------------|
B|---------------------------------------------------------------------------|
G|---------------------------------------------------------------------------| x2
D|--2---2---2---2------------------------------------------------------------|
A|----3---3---3---3---3---3---3---3------------------------------------------|
E|------------------1---1---1---1--------------------------------------------|
You're the only one
You are the very sun 


e|---------------------------------------------------------------------------|
B|---------------------------------------------------------------------------|
G|---------------------------------------------------------------------------|
D|----0---0---0---0---3---3--------------------------------------------------|
A|--------------------------2--3--2--3---------------------------------------|
E|--3---3---3---3---1---1----------------------------------------------------|
to me
And you know it's not easy


[Bridge]


[Chorus]

I don't know the exact chords she uses for the chorus but C, F and G bar chords in that order sound good

        C           F           G
Well, I look at the stars and I know you're under them 
I look at the books and things people are reading 
I know that you've written them, too 
You've got so many little things to do 
But then I look at my life and I know you've forgotten      x2
The promise you made to me I think that's rotten 
I'm hopelessly lost and there's hardly a sound anymore 
Coming through that can show me around 
'Cause I'm endlessly, endlessly searching the crowd 
Looking for something from you 
Just one fucking measly clue 
Any shitty little tip-off would do 
But I'm just an ant in Alaska to you 

G           C       F         C        F        C        F       C
I'm just an ant in alaska, an ant in alaska, an ant in alaska to you

F G F C
 
 
Liz Phair - Ant In Alaska :: indexed at Ultimate Guitar.
Ant In Alaska tabs @ 911Tabs
People who played Liz Phair - Ant In Alaska also played these songs by Liz Phair:
Hwc Chords, Table For One Chords, Somebodys Miracle Chords, Glory Tab, Everything To Me Chords, Why Cant I Chords

Quick tip, so you can enjoy Ant In Alaska even more:

After the registration (which takes just 10 seconds, remember?) you will be able to use your profile - your very own piece of YourChords.com.

Show us your talent, perform Ant In Alaska!

Here you can post a video or audio performance. Tell me more ...
Where can we find your performance? Tell me more ...
Your comment:
Please, log in to post your performance.