Artists by letter: A B C D E F G H I J K L M N O P Q R S T U V W X Y Z 0-9

 
Miraculum
-------------------------------------------------------------------------------
                             Miraculum - Lincoln Brewster
-------------------------------------------------------------------------------
Tabbed by: me 
E-mail: n/a
Tuning: standard





e|------6-6---4-2-----------2-4-6------6-6---4-2-------------2-9-6-----------|
B|-4-4------------6-4-2-4-6--------4-4------------6-4-2-4-6------------------|
G|---------------------------------------------------------------------------|
D|---------------------------------------------------------------------------|
A|---------------------------------------------------------------------------|
E|---------------------------------------------------------------------------|

e|-6-7--4-6-7-9-11-6-4-2----------------7-6-4-2---------------------7-9-11-6-|
B|-----------------------4-6-7-9-7-9-11----------6-4-7-6-4-9-7-9-11----------|
G|---------------------------------------------------------------------------|
D|---------------------------------------------------------------------------|
A|---------------------------------------------------------------------------|
E|---------------------------------------------------------------------------|

e|-4-2-------14-14-14-14-13-10-11----14-14-14-14-13-11-10-11-13-11-----------|
B|------6-4-----------------------11-----------------------------------------|
G|---------------------------------------------------------------------------|
D|---------------------------------------------------------------------------|
A|---------------------------------------------------------------------------|
E|---------------------------------------------------------------------------|

e|------6-6---4-2-----------2-4-6------6-6---4-2-------------2-9-6-----------|
B|-4-4------------6-4-2-4-6--------4-4------------6-4-2-4-6------------------|
G|---------------------------------------------------------------------------|
D|---------------------------------------------------------------------------|
A|---------------------------------------------------------------------------|
E|---------------------------------------------------------------------------|

e|-6-7--4-6-7-9-11-6-4-2----------------7-6-4-2------------------------------|
B|-----------------------4-6-7-9-7-9-11----------6-4-7-6-4-9-7-9-11-12-11-9--|
G|---------------------------------------------------------------------------|
D|---------------------------------------------------------------------------|
A|---------------------------------------------------------------------------|
E|---------------------------------------------------------------------------|

e|=14-13-11------------------------------------------------------------------|
B|---------------------------------------------------------------------------|
G|---------------------------------------------------------------------------|
D|---------------------------------------------------------------------------|
A|---------------------------------------------------------------------------|
E|---------------------------------------------------------------------------|


e|-14--18-16-14----------------18-16-14--------------------------------------|
B|--------------16-18-19-18-16----------16-18-19-18-16-----------------------|
G|---------------------------------------------------------------------------|
D|---------------------------------------------------------------------------|
A|---------------------------------------------------------------------------|
E|---------------------------------------------------------------------------|

(fast)

e|----------14-16-18-14-16-18-19-18-16----------18-16-14---------------------|
B|-14-16-18----------------------------19-18-16----------18-16-14------------|
G|---------------------------------------------------------------------------|
D|---------------------------------------------------------------------------|
A|---------------------------------------------------------------------------|
E|---------------------------------------------------------------------------|


e|-16-14-13----------14-13-11------------------------------------------------|
B|----------16-14-12----------14-12-11----(back up scale)-21-19-18-16-18-----|
G|---------------------------------------------------------------------------|
D|---------------------------------------------------------------------------|
A|---------------------------------------------------------------------------|
E|---------------------------------------------------------------------------|

e|-14-16-18-19-18-16-14------------------------------------------------------|
B|----------------------18-16------------------------------------------------|
G|---------------------------------------------------------------------------|
D|---------------------------------------------------------------------------|
A|---------------------------------------------------------------------------|
E|---------------------------------------------------------------------------|

e|-11-14----11--------------11-----------------------------------------------|
B|-------14----11-14-----11----14-11--------------------------11-------------|
G|-------------------13b--------------13(long bend)-11-----11-----13---------|
D|-----------------------------------------------------13--------------------|
A|---------------------------------------------------------------------------|
E|---------------------------------------------------------------------------|

e|---14-16-18-19-18-16-21-23-------------------------------------------------|
B|---------------------------------------------------------------------------|
G|---------------------------------------------------------------------------|
D|---------------------------------------------------------------------------|
A|---------------------------------------------------------------------------|
E|---------------------------------------------------------------------------|

e|-----6-6-6-4-7-6-4----4-6-2-------------------11-11-9-12-11-9---9-11-7---7-|
B|-4-4---------------7--------4-7-9-6-4-2-4-9-9-----------------12-------9---|
G|---------------------------------------------------------------------------|
D|---------------------------------------------------------------------------|
A|---------------------------------------------------------------------------|
E|---------------------------------------------------------------------------|

e|-9---------16-14-11-12-11-9-12-11-18-19-9-11-7---7-9-----------------------|
B|--11-9-7-9-------------------------------------9-----11-9-19---------------|
G|---------------------------------------------------------------------------|
D|---------------------------------------------------------------------------|
A|---------------------------------------------------------------------------|
E|---------------------------------------------------------------------------|

e|-7-7-7-7-6-3-4---7-7-7-7-6-3-4---7-7-7-7-6-3-4----7-7-7-7-6-4-3-4-6-4------|
B|---------------4---------------11---------------4--------------------------|
G|---------------------------------------------------------------------------|
D|---------------------------------------------------------------------------|
A|---------------------------------------------------------------------------|
E|---------------------------------------------------------------------------|

e|-16-16-16-14---------------------------------------------------------------|
B|-------------17-16-16-16-14----14-14-14-16-14------------------------------|
G|----------------------------16----------------13---------------------------|
D|---------------------------------------------------------------------------|
A|---------------------------------------------------------------------------|
E|---------------------------------------------------------------------------|

e|-16-16-16-14---------------------------------------------------------------|
B|-------------17-16-16-16-14----14-14-14-16-14------------------------------|
G|----------------------------16----------------13-15-16---------------------|
D|---------------------------------------------------------------------------|
A|---------------------------------------------------------------------------|
E|---------------------------------------------------------------------------|

e|-16-16-16-14---------------------------------------------------------------|
B|-------------17-16-16-16-14----14-14-14-16-14------------------------------|
G|----------------------------16----------------12---------------------------|
D|---------------------------------------------------------------------------|
A|---------------------------------------------------------------------------|
E|---------------------------------------------------------------------------|

e|--15-15-15-15-16-12-12-12-12-15-11-11-11-12----11-11-12-11-----------------|
B|--------------------------------------------14-----------------------------|
G|---------------------------------------------------------------------------|
D|---------------------------------------------------------------------------|
A|---------------------------------------------------------------------------|
E|---------------------------------------------------------------------------|

e|--------------------------------------9-11-9-------------------------------|
B|------------------------------9-11-12--------12----------------------------|
G|--------------6-8-6---8-10-12----------------------------------------------|
D|--------6-8-9-------9-------------------------------------6-8-9------------|
A|-6-8-10-------------------------------------------6-8-10-------------------|
E|---------------------------------------------------------------------------|

e|-------------------------------------------9-11-13-14----------------------|
B|--------------------------9-11-12--9-11-12---------------------------------|
G|-----------------8-10-12---------------------------------------------------|
D|--------6-8-9--------------------------------------------------------------|
A|-6-8-10--------------------------------------------------------------------|
E|---------------------------------------------------------------------------|

e|--14--14-13-11-13-----------14-----------18-16-14-16---16------------------|
B|-------------------14-16-18----18-16-14-------------------16-16-16---------|
G|---------------------------------------------------------------------------|
D|---------------------------------------------------------------------------|
A|---------------------------------------------------------------------------|
E|---------------------------------------------------------------------------|

e|-14-16-15-14-----------------14-16-18-18b-16----14--14-13-14-11------------|
B|-------------------14-16-18-----------------16----------------------------|
G|---------------------------------------------------------------------------|
D|---------------------------------------------------------------------------|
A|---------------------------------------------------------------------------|
E|---------------------------------------------------------------------------|

e|-14-13-14-11-14-13-14-11-14-13-14-11-----18-16-18-14-18-16-18-14-18-16-18--|
B|---------------------------------------------------------------------------|
G|---------------------------------------------------------------------------|
D|---------------------------------------------------------------------------|
A|---------------------------------------------------------------------------|
E|---------------------------------------------------------------------------|

e|-14-18-16-18-14-----------14-16-18-16-14----------------18-18-16-14--------|
B|----------------14-16-18------------------18-16-14-16----------------------|
G|---------------------------------------------------------------------------|
D|---------------------------------------------------------------------------|
A|---------------------------------------------------------------------------|
E|---------------------------------------------------------------------------|

e|-------------19full bend-19-18-16-18--16-14-13-14-------18-18-16-14--------|
B|-18-16-14-16-----------------------------------------16-------------18-----|
G|---------------------------------------------------------------------------|
D|---------------------------------------------------------------------------|
A|---------------------------------------------------------------------------|
E|---------------------------------------------------------------------------|

e|----------14-13b---------------------------------------------18-18-16-14---|
B|-16-14-16--------14-------14------------------------------16-------------18|
G|--------------------13-15---13-11-10-11-10---------------------------------|
D|-------------------------------------------11------------------------------|
A|----------------------------------------------11-9-8-11-8------------------|
E|---------------------------------------------------------------------------|

e|--------------19----18----19----18--19-18-16-------------------------------|
B|-16-14-18b-16----16----16----16--------------19-18-16-19-18-16-------------|
G|---------------------------------------------------------------------------|
D|---------------------------------------------------------------------------|
A|---------------------------------------------------------------------------|
E|---------------------------------------------------------------------------|

e|---------------------------------------------------------------------------|
B|---------------------------------------------------------------------------|
G|--18-16-15-18-16-15--------------------------------------------------------|
D|--------------------18-16-15-----------------------------------------------|
A|-----------------------------18-16-----------------------------------------|
E|---------------------------------------------------------------------------|


e|----18-18-16-14----------------14-13-14-11-14-13-14-11-14-13-14-11---------|
B|-16-------------18-16-12-14-16---------------------------------------------|
G|---------------------------------------------------------------------------|
D|---------------------------------------------------------------------------|
A|---------------------------------------------------------------------------|
E|---------------------------------------------------------------------------|

e|-14-13-14-11--18-16-18-14-18-16-18-14-18-16-18-14-18-16-18-14--------------|
B|---------------------------------------------------------------------------|
G|---------------------------------------------------------------------------|
D|---------------------------------------------------------------------------|
A|---------------------------------------------------------------------------|
E|---------------------------------------------------------------------------|

e|--11----------------------------------14-13-11----13-11-------11-----------|
B|-----14-12-11-14-12-11----12-11----------------14-------14-12----14-12-11--|
G|-----------------------13-------13-11--------------------------------------|
D|---------------------------------------------------------------------------|
A|---------------------------------------------------------------------------|
E|---------------------------------------------------------------------------|

e|-18-16-14----16-14-------14----------19-18-16----18-16-------16------------|
B|----------18-------18-16----18-16-14----------19-------19-18----19-18-16---|
G|---------------------------------------------------------------------------|
D|---------------------------------------------------------------------------|
A|---------------------------------------------------------------------------|
E|---------------------------------------------------------------------------|

e|---------------16----18-21(big bend)--16-19-16-18-----16-----21(big bend)--|
B|--18-18b-16-15----15-------------------------------19----18----------------|
G|---------------------------------------------------------------------------|
D|---------------------------------------------------------------------------|
A|---------------------------------------------------------------------------|
E|---------------------------------------------------------------------------|





Thanks...

************************************

| /   slide up
| \   slide down
| h   hammer-on
| p   pull-off
| ~   vibrato
| +   harmonic
| x   Mute note
| b   Bend
| pb  Pre-bend
| br  Bend release
| pbr Pre-bend release
| brb Bend release bend

************************************
 
 
Lincoln Brewster - Miraculum :: indexed at Ultimate Guitar.
Miraculum tabs @ 911Tabs

About the artist behind Miraculum:

Lincoln Brewster (born July 30, 1971 in Fairbanks, Alaska) is a Christian music artist and pastor. A multi-talented guitarist, singer, and songwriter, Brewster became a sought-after session guitarist in the early 90s.

Indexed at Wikipedia.

Show us your talent, perform Miraculum!

Here you can post a video or audio performance. Tell me more ...
Where can we find your performance? Tell me more ...
Your comment:
Please, log in to post your performance.