Artists by letter: A B C D E F G H I J K L M N O P Q R S T U V W X Y Z 0-9

 
Everlasting God
Pre Chorus:
Play all on the B string (2nd string)

-7-9-7-9-11-12-12-12-14-12-11-11

-11-11-12--7-9-7-9-11-12-12-12-

14-12-11-11-11-11-12-11--

Instrumental:
--------------------------------------|
--------------------------------------|
-4-4-4-4-4-6-6-8-8--8--9--8---8--9----|
-------------------------s--s-------s-|
-2-2-2-2-2-4-4-6-6--6--7--6---6--7----|
--------------------------------------|

------------------------------|
------------------------------|
-8-6-4-6-8-8--9--8-6-4-6-8-8--|
--------------s---------------|
-6-4-2-4-6-6--7--6-4-2-4-6-6--|
------------------------------|

--------------------------------------|
----15b16-17-14-----14s16-17-19-15b16-|
-16--------------16-------------------|
--------------------------------------|
--------------------------------------|
--------------------------------------|

--------------------------------------|
----------------12--------------------|
-18-16--13p11---13p11-----------------|
-------------------------11-11s9-11p9-|
--------------------------------------|
--------------------------------------|

-9p7--11p7--------9p7-11p7--12p7-------|
-----0------0-0-0-------------0------0-|
---------------------------------------|
---------------------------------------|
---------------------------------------|
---------------------------------------|

-11p7--9p7--9h11p9p7-9-----9h11p9p7-9-|
-------0----0--------------0-0--------|
--------------------------------------|
--------------------------------------|
--------------------------------------|
--------------------------------------|

---------------------------------------------|
-9h11p9-11-11-9s7----12-----12--------12-----|
--------------------9-11---8-11---8s9-11---9-|
---------------------------------------------|
---------------------------------------------|
---------------------------------------------|
(play and bottom 2 strings)

l-s14-14-14-14-s14------------------|
---------------------17-16-14-16-17-|

-14s16-18-16-18-19-20b--|
------------------------|
 
 
Lincoln Brewster - Everlasting God :: indexed at Ultimate Guitar.
Everlasting God tabs @ 911Tabs

About the artist behind Everlasting God:

Lincoln Brewster (born July 30, 1971 in Fairbanks, Alaska) is a Christian music artist and pastor. A multi-talented guitarist, singer, and songwriter, Brewster became a sought-after session guitarist in the early 90s.

Indexed at Wikipedia.

Show us your talent, perform Everlasting God!

Here you can post a video or audio performance. Tell me more ...
Where can we find your performance? Tell me more ...
Your comment:
Please, log in to post your performance.