Artists by letter: A B C D E F G H I J K L M N O P Q R S T U V W X Y Z 0-9

 
Ambisyoso Tab
Song: Ambisyoso
Artist: Kamikazee
Tabbed By: Gerard Emmanuel Amador
Email Address: [email protected]
Mobile #: 09277062046
Location: Mabini Street Guinobatan Albay

Standard Tuning poh toh  Intindihin nyo lang at madali lang toh

Legend:
 . = palm muted
 h = hammer-on
 / = slide
 * = harmonics


Drums     Then sasabay ung Bass
Mga sa parenthesis po times yan...

Intro #1:

Bass:

|-11--------14------11-------12------14--------------|
|-12-(10x)--12-(3x)-12-(1x)--12-(8x)-12-(3x)---------|
|----------------------------------------------------|
|----------------------------------------------------|

|-11--------14------11-------12-------------|
|-12-(10x)--12-(3x)-12-(1x)--12-*1x)--------|
|-------------------------------------------|
|-------------------------------------------|

Guitar 2:
|----------------------------------|
|----------------------------------|
|----------------------------------|(Sabay to pag intro)
|-4*--5*---------------------------|
|--------5*------------------------|
|----------------------------------|


Intro #2:

Guitar 2:
|-----------------------------------------------------------|
|-----------------------------------------------------------|
|--------------------------------------------0-0-0-0-0------|repeat 2x
|---4---4h5-4---4-------4h5-0---4--------4-------------7-7--|
|-5---5-------5---5-5-5-------5--------5---5----------------|
|-----------------------------------------------------------|


Bass: (ang bass hanggang sa matapos ang verse 1)
|-------------------------------------------------|
|---4---4h5---------------------------------------|
|-5---5------7-5--4-5--5/7-5-4-0------------------|
|---------------------------------2222233333-----|

Verse 1:

Guitar 2:
   Ang sarap sanang magkaroon ng sapatos na Lumilipad
|----------0-----------|----------------------------------|
|--------3-------------|-----------3---2------------------|
|----------------------|---------2---2--------------------|
|----------------------|----------------------------------|
|----------------------|----------------------------------|
|----------------------|----------------------------------|
   Space Ship, Kotse ni Batman, X-ray shades at Laser gun
|----------0-----------|----------------------------------|
|--------3-------------|-----------3---2------------------|
|----------------------|---------2---2--------------------|
|----------------------|----------------------------------|
|----------------------|----------------------------------|
|----------------------|----------------------------------|

Refrain:

Both Guitars:
     Magic wallet na hindi nauubusan ng laman
|---------------------------------------------------------|
|---------------------------------------------------------|
|-------7-------------------------------------------------|
|-------7-------4-------5---------------------------------|
|-------5-------4-------5---------------------------------|
|---------------2-------3---------------------------------|
	.	 .	 .

     Time machine (time machine) Babalik ang oras
|---------------------------------------------------------|
|---------------------------------------------------------|
|-------7-------------------------------------------------|
|-------7-------4-------5---------------------------------|
|-------5-------4-------5---------------------------------|
|---------------2-------3---------------------------------|
	.	 .	 .
Bass:
|------------------------------------------------------|
|------------------------------------------------------|
|-------5555555555555----------------------------------|
|---------------------222222-33333---------------------|


Chorus: (ung bass sabay lang sa chord na D-Fm-G okie!)


 Libre lang mangarap, walang hanggan na paghiling
Guitar 1:
|---------------------------------------------------------|
|---------------------------------------------------------|
|-------7-------------------------------------------------|
|-------7-------4-------5---------------------------------|
|-------5-------4-------5---------------------------------|
|---------------2-------3---------------------------------|

Guitar 2:
|---------------------------------------------------------|
|---------------------------------------------------------|
|-------7-------6-------7---------------------------------|
|-------7-------7-------7---------------------------------|
|-------5-------5-------5---------------------------------|
|---------------------------------------------------------|


       Libre lang mangarap managinip ka habang gising
Guitar 1:
|---------------------------------------------------------|
|---------------------------------------------------------|
|-------7-------------------------------------------------|
|-------7-------4-------5-4-5-4-5-4-5--7------------------|
|-------5-------4-------5-4-5-4-5-4-5--7------------------|
|---------------2-------3-2-3-2-3-2-3--5------------------|

Guitar 2:
|---------------------------------------------------------|
|---------------------------------------------------------|
|-------7-------6-----------------------------------------|
|-------7-------7-------5-4-5-4-5-4-5--7------------------|
|-------5-------5-------5-4-5-4-5-4-5-7------------------|
|-----------------------3-2-3-2-3-2-3--5------------------|


Verse 2:

   Ang sarap sanang maging bida sa sarili kong pelikula
   Ninja kumakain ng bala, magaling sumayaw parang John Travolta

Bass: (repeat this hanggang matapos ang verse 2)
|-------------------------------------------------|
|---4---4h5---------------------------------------|
|-5---5------7-5--4-5--5/7-5-4-0------------------|
|---------------------------------2222233333-----|

Guitar 2:
|----------------------------------|
|----------------------------------|
|----------------------------------|
|-4*--5*---------------------------|
|--------5*------------------------|
|----------------------------------|


Refrain:

Both Guitars:
  Ka love team ko ang lahat ng magaganda at seksing artista
|---------------------------------------------------------|
|---------------------------------------------------------|
|-777--6666--4444--2222--------777--6666--4444--2222------|
|-000--0000--0000--0000--------000--0000--0000--0000------|
|---------------------------------------------------------|
|---------------------------------------------------------|

Kissing scene (kissing scene) kay Aubrey Miles o Angel Locsin
|---------------------------------------------------------|
|---------------------------------------------------------|
|-777--6666--4444--2222--------777--6666--4--2------------|
|-000--0000--0000--0000--------000--0000--0-0------------|
|---------------------------------------------------------|
|---------------------------------------------------------|


Bass:
|------------------------------------------------------|
|------------------------------------------------------|
|-------5555555555555----------------------------------|
|---------------------222222-33333---------------------|


Chorus: (ung bass sabay lang sa chord na D-Fm-G okie!)


 Libre lang mangarap, walang hanggan na paghiling
Guitar 1:
|---------------------------------------------------------|
|---------------------------------------------------------|
|-------7-------------------------------------------------|
|-------7-------4-------5---------------------------------|
|-------5-------4-------5---------------------------------|
|---------------2-------3---------------------------------|

Guitar 2:
|---------------------------------------------------------|
|---------------------------------------------------------|
|-------7-------6-------7---------------------------------|
|-------7-------7-------7---------------------------------|
|-------5-------5-------5---------------------------------|
|---------------------------------------------------------|


       Libre lang mangarap managinip ka habang gising
Guitar 1:
|---------------------------------------------------------|
|---------------------------------------------------------|
|-------7-------------------------------------------------|
|-------7-------4-------5-4-5-4-5-4-5--7------------------|
|-------5-------4-------5-4-5-4-5-4-5--7------------------|
|---------------2-------3-2-3-2-3-2-3--5------------------|

Guitar 2:
|---------------------------------------------------------|
|---------------------------------------------------------|
|-------7-------6-----------------------------------------|
|-------7-------7-------5-4-5-4-5-4-5--7------------------|
|-------5-------5-------5-4-5-4-5-4-5-7------------------|
|-----------------------3-2-3-2-3-2-3--5------------------|


Interlude: (Repeat interlude 2 times)

Guitar 1:
|-----------------------------------------------|
|-----------------------------------------------|
|-----------------------------------------------|
|-7---9---5---------7---9---5-------------------|
|-7---9---5---------7---9---5-------------------|
|-5---7---3---------5---7---3-------------------|


Guitar 2:
|-----------------------------------------------|
|-2---3---0---------2---3---0-------------------|
|-2---4---0---------2---4---0-------------------|
|-2---4---5---------2---4---5-------------------|
|-----2---5-------------2---5-------------------|
|---------3-----------------3-------------------|

Bass:
|-------------------------------------------|
|-------------------------------------------|
|--------------------------22-55-------2-5--|
|-55555555-7777777---33-55-------33-55------|

Di tulad sa tindahan walang utang walang listahan

Guitar 1:
|-----------------------------------------------|
|-----------------------------------------------|
|-----------------------------------------------|
|-7---9---5---------7---9---5-------------------|
|-7---9---5---------7---9---5-------------------|
|-5---7---3---------5---7---3-------------------|


Guitar 2:
|-----------------------------------------------|
|-2---3---0---------2---3---0-------------------|
|-2---4---0---------2---4---0-------------------|
|-2---4---5---------2---4---5-------------------|
|-----2---5-------------2---5-------------------|
|---------3-----------------3-------------------|

Bass:
|-------------------------------------------|
|-------------------------------------------|
|--------------------------22-55-------2-5--|
|-55555555-7777777---33-55-------33-55------|


Managinip at mangarap walang kang babayaran

Guitar 1:
|-----------------------------------------------|
|-----------------------------------------------|
|-----------------------------------------------|
|-7---9---5---------7---9---5-------------------|
|-7---9---5---------7---9---5-------------------|
|-5---7---3---------5---7---3-------------------|


Guitar 2:
|-----------------------------------------------|
|-2---3---0---------2---3---0-------------------|
|-2---4---0---------2---4---0-------------------|
|-2---4---5---------2---4---5-------------------|
|-----2---5-------------2---5-------------------|
|---------3-----------------3-------------------|

Bass:
|----------------------------------------------|
|----------------------------------------------|
|----------------------------------------------|
|-55555555-7777777---33333333333333-3/12-12/3--|


Adlib:

Guitar 2:
|----------------------------------------------------|
|-77777777--8888888----------------------------------|
|-77777777--7777777----------------------------------|
|---------------------4444444--5555555---------------|
|---------------------4444444--5555555---------------|
|---------------------2222222--3333333---------------|

|----------------------------------------------------|
|-77-8-7-8---777-8-7-8-7-----------------------------|
|-77-7-7-7---777-7-7-7-7-----------------------------|
|-------------------------4444444--5555555-----------|
|-------------------------44444445555555------------|
|-------------------------2222222--3333335-----------|

|----------------------------------------------------|
|-10-------------------------------------------------|
|--9-(15x)-------------------------------------------|
|-------------------------4444444--5555555-----------|
|-------------------------4444444--5555555-----------|
|-------------------------2222222--3333333-----------|


|----------------------------------------------------|
|-1010101010--99-1010--99--1010----------------------|
|--9-9-9-9-9--99--9-9--99---9-9----------------------|
|---------------------------------4444444--5555555---|
|---------------------------------4444444--5555555---|
|---------------------------------2222222--3333333---|

|------------------------------------------------------------------|
|------------------------------------------------------------------|
|------------------------------------------------------------------|
|-4444444-5555555--------44--5-4-5-4--44-5-4-5---44-5-4-5-4--5--7--|
|-4444444-5555555--------44--5-4-5-4--44-5-4-5---44-5-4-5-4--5--7--|
|-2222222-3333333--------22-3-2-3-2--22-3-2-3---22-3-2-3-2--3--5--|

Chorus: (Repeat Chorus 2 times)

Chorus: (ung bass sabay lang sa chord na D-Fm-G okie!)


 Libre lang mangarap, walang hanggan na paghiling
Guitar 1:
|---------------------------------------------------------|
|---------------------------------------------------------|
|-------7-------------------------------------------------|
|-------7-------4-------5---------------------------------|
|-------5-------4-------5---------------------------------|
|---------------2-------3---------------------------------|

Guitar 2:
|---------------------------------------------------------|
|---------------------------------------------------------|
|-------7-------6-------7---------------------------------|
|-------7-------7-------7---------------------------------|
|-------5-------5-------5---------------------------------|
|---------------------------------------------------------|


Libre lang mangarap managinip ka habang gising  (tapos last chorus putulin, dapat= 
ka!)
Guitar 1:
|---------------------------------------------------------|
|---------------------------------------------------------|
|-------7-------------------------------------------------|
|-------7-------4-------5---------------------------------|
|-------5-------4-------5---------------------------------|
|---------------2-------3---------------------------------|

Guitar 2:
|---------------------------------------------------------|
|---------------------------------------------------------|
|-------7-------6-----------------------------------------|
|-------7-------7-------5---------------------------------|
|-------5-------5-------5---------------------------------|
|-----------------------3---------------------------------|



Para po sainyo to. Please rate and have fun!! Pinag hirapan ko talaga po to, di nga pi 
kumain...Hehehe. Thx again!!

Hi sa Band ko:
Gerard (me)-Lead guitars
Billy June- Bass (special thanks dito, sya tumuro ng bass saken)
Fernando- Drums
April Joy- Rhytym Guitars
Albert- Vocals
Romel (kotoy)- Vocals

 
 
Kamikazee - Ambisyoso Tab :: indexed at Ultimate Guitar.
Ambisyoso tabs @ 911Tabs

About the artist behind Ambisyoso Tab:

Kamikazee is a rock band from the Philippines composed of Jay Contreras (Lead Vocalist), Jomal Linao (Guitars/Back-up Vocals), Led Zeppelin Tuyay (Guitars), Jason "Puto" Astete (Bass Guitar) and Allan "Bords" Burdeos (drums).

Indexed at Wikipedia.

Show us your talent, perform Ambisyoso Tab!

Here you can post a video or audio performance. Tell me more ...
Where can we find your performance? Tell me more ...
Your comment:
Please, log in to post your performance.