Artists by letter: A B C D E F G H I J K L M N O P Q R S T U V W X Y Z 0-9

 
Man To Man
-------------------------------------------------------------------------------
Man To Man - Limp Wrist
Thee Official Limp Wrist Discography
-------------------------------------------------------------------------------
Tabbed by: axeslash
Email: [email protected]

Tuning: Both guitars Standard (EADGBe)

Guitar 1
e|----------------------------------------------------------------------------------------|
B|----------------------------------------------------------------------------------------|
G|-------9--9-9-9-9-----9-9-9-9-------9--9-9-9-9-----9-9-9-9-8-8-8-5--5-5-5-5-5-5-5-5-5-5-|
D|-7-7-7-9--9-9-9-9-7-7-9-9-9-9-7-7-7-9--9-9-9-9-7-7-9-9-9-9-8-8-8-5--5-5-5-5-5-5-5-5-5-5-|
A|-7-7-7-7--7-7-7-7-7-7-7-7-7-7-7-7-7-7--7-7-7-7-7-7-7-7-7-7-6-6-6-3--3-3-3-3-3-3-3-3-3-3-|
E|-5-5-5------------5-5---------5-5-5------------5-5--------------------------------------| x3

Guitar 1
e|------------------------------------------------------------------------------|
B|------------------------------------------------------------------------------|
G|-------9--9-9-9-9-----9-9-9-9-------9--9-9-9-9-----9-9-9-9-8-8-8-5------------|
D|-7-7-7-9--9-9-9-9-7-7-9-9-9-9-7-7-7-9--9-9-9-9-7-7-9-9-9-9-8-8-8-5------------|
A|-7-7-7-7--7-7-7-7-7-7-7-7-7-7-7-7-7-7--7-7-7-7-7-7-7-7-7-7-6-6-6-3------------|
E|-5-5-5------------5-5---------5-5-5------------5-5----------------------------|

Guitar 1                             Guitar 1
e|-----------------------------|     e|------------------------------|
B|-----------------------------|     B|------------------------------|
G|-------5----------5----7--8--|     G|------------------------------|
D|-5-5-5-5----5-5-5-5----7--8--|     D|-5--5-5-5-5-7--3--3-3-3-3-3-3-|
A|-3-3-3-3----3-3-3-3----5--6--|     A|-5--5-5-5-5-7--3--3-3-3-3-3-3-|
E|-3-3-3-3----3-3-3-3----------| x3  E|-3--3-3-3-3-5--1--1-1-1-1-1-1-|
  [X-X-X]    [X-X-X]

Guitar 1
e|-----------------------------|
B|-----------------------------|
G|-------5----------5----7--8--|
D|-5-5-5-5----5-5-5-5----7--8--|
A|-3-3-3-3----3-3-3-3----5--6--|
E|-3-3-3-3----3-3-3-3----------| x3
  [X-X-X]    [X-X-X]

Guitar 1
e|---------------------------------------------------|
B|---------------------------------------------------|
G|---------------------------------------------------|
D|-5--5-5-5-5-7--3--3-3-3-3-5-2--------2-2-2-2-2-2-2-|
A|-5--5-5-5-5-7--3--3-3-3-3-5-2--------2-2-2-2-2-2-2-|
E|-3--3-3-3-3-5--1--1-1-1-1-3-0--------0-0-0-0-0-0-0-| x4
Guitar Fill:
e|---------------------------------------------------|
B|---------------------------------------------------|
G|-------------------------------------5-------------|
D|-------------------------------------7^------------|
A|---------------------------------------------------|
E|---------------------------------------------------| x4

Guitar 1
e|-----------------------------|
B|-----------------------------|
G|-------5----------5----7--8--|
D|-5-5-5-5----5-5-5-5----7--8--|
A|-3-3-3-3----3-3-3-3----5--6--|
E|-3-3-3-3----3-3-3-3----------| x3
  [X-X-X]    [X-X-X]

| ^  bend up about one whole step
| /  slide up
| \  slide down
| h  hammer-on
| p  pull-off
| ~  vibrato
| +  harmonic
| x  Mute note
===============================================================================
 
 
Limp Wrist - Man To Man :: indexed at Ultimate Guitar.
Man To Man tabs @ 911Tabs

Quick tip, so you can enjoy Man To Man even more:

If you spend just 10 seconds to register, you will be able to comment on all the chords and tabs and rate them. You will as well be able to comment on videos of your fellow guitarists and give them ratings from 1 to 5 ... And - of course - you can share your own videos with them and see what they think of you. :)
Click here to join us!

Show us your talent, perform Man To Man!

Here you can post a video or audio performance. Tell me more ...
Where can we find your performance? Tell me more ...
Your comment:
Please, log in to post your performance.