Artists by letter: A B C D E F G H I J K L M N O P Q R S T U V W X Y Z 0-9

 
Brotherhood
-------------------------------------------------------------------------------
Brotherhood - Limp Wrist
Thee Official Limp Wrist Discography
-------------------------------------------------------------------------------
Tabbed by: axeslash
Email: [email protected]

Guitars 1 & 2 play the exact same thing through the whole song, while there is
a single fill riff from a third overdubbed guitar.  All guitars are in
standard tuning.

e|---------------------------|
B|---------------------------|
G|-9-9--9-9-9----------------|
D|-9-9--9-9-9--7-7--7-10-10--|
A|-7-7--7-7-7--7-7--7-10-10--|
E|-------------5-5--5--8--8--| x4

Guitars 1 & 2:
e|-------------------------------------------------------|
B|-------------------------------------------------------|
G|--------9-9--9-10-10--10-10-10--------9-9--9-10-9-7----|
D|-7-7--7-9-9--9-10-10--10-10-10-7-7--7-9-9--9-10-9-7----|
A|-7-7--7-7-7--7--8--8---8--8--8-7-7--7-7-7--7--8-7-5----|
E|-5-5--5------------------------5-5--5------------------| x2
Overdubbed Fill:
e|-------------------------------------------------------|
B|----------------7^-------------------------------------|
G|----------------9^-------------------------------------|
D|-------------------------------------------------------|
A|-------------------------------------------------------|
E|-------------------------------------------------------| x2

e|---------------------------|
B|---------------------------|
G|-9-9--9-9-9----------------|
D|-9-9--9-9-9--7-7--7-10-10--|
A|-7-7--7-7-7--7-7--7-10-10--|
E|-------------5-5--5--8--8--| x4

Guitars 1 & 2:
e|-------------------------------------------------------|
B|-------------------------------------------------------|
G|--------9-9--9-10-10--10-10-10--------9-9--9-10-9-7----|
D|-7-7--7-9-9--9-10-10--10-10-10-7-7--7-9-9--9-10-9-7----|
A|-7-7--7-7-7--7--8--8---8--8--8-7-7--7-7-7--7--8-7-5----|
E|-5-5--5------------------------5-5--5------------------| x2
Overdubbed Fill:
e|-------------------------------------------------------|
B|----------------7^-------------------------------------|
G|----------------9^-------------------------------------|
D|-------------------------------------------------------|
A|-------------------------------------------------------|
E|-------------------------------------------------------| x2

e|---------------------------------------------------------------------------|
B|---------------------------------------------------------------------------|
G|-7-------------------------------------------------------------------------|
D|-7-------------------------------------------------------------------------|
A|-5-------------------------------------------------------------------------|
E|---------------------------------------------------------------------------|

e|------------------|  e|--------------------------------------|
B|------------------|  B|--------------------------------------|
G|-6-6-6-6-6-6-6----|  G|-----9-6--6-6-6-6-6-6-6-6-6-6-6-6-6-6-|
D|-6-6-6-6-6-6-6----|  D|-7-7-9-6--6-6-6-6-6-6-6-6-6-6-6-6-6-6-|
A|-4-4-4-4-4-4-4----|  A|-7-7-7-4--4-4-4-4-4-4-4-4-4-4-4-4-4-4-|
E|------------------|  E|-5-5----------------------------------| x4

e|----------------------------------------|
B|----------------------------------------|
G|-----9-6--------------------------------|
D|-7-7-9-6--------------------------------|
A|-7-7-7-4--------------------------------|
E|-5-5------------------------------------|

e|-------------------------------------------------|
B|-------------------------------------------------|
G|-------------10-10--10-10-10--7-7--7-7-7--10-10--|
D|-7-7--7-7-7--10-10--10-10-10--7-7--7-7-7--10-10--|
A|-7-7--7-7-7---8--8---8--8--8--5-5--5-5-5---8--8--|
E|-5-5--5-5-5--------------------------------------| x2

e|------------------------------------------------|
B|------------------------------------------------|
G|-------9-9-9-------9-9-9-------9-9-9------9-9-9-|
D|-7--7--7-7-7-7--7--7-7-7-7--7--7-7-7-7--7-7-7-7-|
A|-7--7--------7--7--------7--7--------7--7-------|
E|-5--5--------5--5--------5--5--------5--5-------|

e|-------------------------------------------------|
B|-------------------------------------------------|
G|-------------10-10--10-10-10--7-7--7-7-7--10-10--|
D|-7-7--7-7-7--10-10--10-10-10--7-7--7-7-7--10-10--|
A|-7-7--7-7-7---8--8---8--8--8--5-5--5-5-5---8--8--|
E|-5-5--5-5-5--------------------------------------| x2

e|-----------------------------------------------------|
B|-----------------------------------------------------|
G|-------9-9-9-------9-9-9-------9-9-9------9-9-9------|
D|-7--7--7-7-7-7--7--7-7-7-7--7--7-7-7-7--7-7-7-7-7----|
A|-7--7--------7--7--------7--7--------7--7-------7----|
E|-5--5--------5--5--------5--5--------5--5-------5----|

| ^  bend up one whole step
| /  slide up
| \  slide down
| h  hammer-on
| p  pull-off
| ~  vibrato
| +  harmonic
| x  Mute note
===============================================================================
 
 
Limp Wrist - Brotherhood :: indexed at Ultimate Guitar.
Brotherhood tabs @ 911Tabs

Quick tip, so you can enjoy Brotherhood even more:

YourChords.com Guitar Chords and Tabs Archive is currently indexing over 240'000 songs from 21'000+ different artists. And new chords just keep on coming in, so you will surely never run out of them.

Show us your talent, perform Brotherhood!

Here you can post a video or audio performance. Tell me more ...
Where can we find your performance? Tell me more ...
Your comment:
Please, log in to post your performance.