Artists by letter: A B C D E F G H I J K L M N O P Q R S T U V W X Y Z 0-9

 
Girl Of My Dreams Tab
-------------------------------------------------------------------------------
			     Girl Of My Dreams - Jonas Brothers
-------------------------------------------------------------------------------
Tabbed by: Nikkar
Email: [email protected]

Alright this is Girl OF My Dreams couldn't find it on UG so I  
Decided to tab it myself
Hope you Enjoy!

Tuning: Standard

Intro:
Riff 1                   Riff 2                    Riff 3
e|---------------------||----------------------------||-----------------------------------|
B|---------------------||----------------------------||-----------------------------------|
G|---------------------||----------------------------||-----------------------------------| Riff 2
D|---------------------||----------------------------||-----------------------------------| rpt.x2
A|-00-77-55-44-00-77-5-||--00-77-55-44-00-77-55-44---||-00-1212-1010-99-00-1212-1010-99---|
E|---------------------||----------------------------||-----------------------------------|

End of riff 2:
e|----------------------------------------------------------------------------------------|
B|----------------------------------------------------------------------------------------|
G|----------------------------------------------------------9/----------------------------|
D|--99999999999999-1212121212121212/111212/111212/111212-9/----------------------------|
A|--99999999999999-1212121212121212/111212/111212/111212-7/----------------------------|
E|--77777777777777-1010101010101010/-91010/-91010/-91010-------------------------------|

Verse:
e|----------------------------|
B|----------------------------|
G|--------------------------9/|                               *Note: Notes not played
D|--------------------------9/|                                       over words...
A|--00-77-55-44-00-77-55-44-7/|
E|----------------------------|
This Christmas times theres jsut one thing I want.

e|---------------------------|
B|---------------------------|
G|------------------------9/-|
D|99999999/899/899/899-9/-|
A|99999999/899/899/899-7/-|
E|77777777/677/677/677----|
It tops all, Its better than eggnog.

e|----------------------------|
B|----------------------------|
G|--------------------------9/|
D|--------------------------9/|
A|--00-77-55-44-00-77-55-44-7/|
E|----------------------------|
Its cold outside, my boots are full of snow.

e|---------------------------|
B|---------------------------|
G|------------------------9/-|
D|99999999/899/899/899-9/-|
A|99999999/899/899/899-7/-|
E|77777777/677/677/677----|
I'm just hoping for some mistle toe  oohh.
  
  Chorus:
e|------------------------------------------|
B|------------------------------------------|
G|--9999x9999x9999x9999x--------------------|
D|--9999x9999x9999x9999x9999x9999x9999x9999x|
A|--7777x7777x7777x7777x9999x9999x9999x9999x|
E|----------------------7777x7777x7777x7777x|

e|---------------------------------------------------------|
B|---------------------------------------------------------|
G|---------------------------------------------------------|
D|11111111x11111111x11111111x11111111x7777x7777x7777x7777x-| x2
A|11111111x11111111x11111111x11111111x7777x7777x7777x7777x-|
E|-9-9-9-9x-9-9-9-9x-9-9-9-9x-9-9-9-9x5555x5555x5555x5555x-|
You can take  these presents, 
underneath my tree, 
you can take this awsome scarf my grandma made for me.
 You can take these boxes tied up with string 
cause all I want for Christmas is the girl of my dreams


e|----------------------------||-----------------------------------||----------------------------|
B|----------------------------||-----------------------------------||----------------------------|
G|----------------------------||-----------------------------------||----------------------------|
D|----------------------------||-----------------------------------||----------------------------|
A|--00-77-55-44-00-77-55-44---||-00-1212-1010-99-00-1212-1010-99---||--00-77-55-44-00-77-55-44---|
E|----------------------------||-----------------------------------||----------------------------|
             YEAH!                         Waoh!

e|----------------------------------------------------------------------------------------|
B|----------------------------------------------------------------------------------------|
G|----------------------------------------------------------9/----------------------------|
D|--99999999999999-1212121212121212/111212/111212/111212-9/----------------------------|
A|--99999999999999-1212121212121212/111212/111212/111212-7/----------------------------|
E|--77777777777777-1010101010101010/-91010/-91010/-91010-------------------------------|
        Ho! Ho! Ho!                  YEAH!

Verse:
e|----------------------------|
B|----------------------------|
G|--------------------------9/|                               *Note: Notes not played
D|--------------------------9/|                                       over words...
A|--00-77-55-44-00-77-55-44-7/|
E|----------------------------|
 Lights are going up its Christmas time.

e|---------------------------|
B|---------------------------|
G|------------------------9/-|
D|99999999/899/899/899-9/-|
A|99999999/899/899/899-7/-|
E|77777777/677/677/677----|
But I just want that girl to be mine!

e|----------------------------|
B|----------------------------|
G|--------------------------9/|
D|--------------------------9/|
A|--00-77-55-44-00-77-55-44-7/|
E|----------------------------|
My stockings full but I'm not satisfied.
NO, No, NOOOOO
e|------------------------------------------------|
B|------------------------------------------------|
G|------------------------------------------------|
D|9999999999999912121212121212121212121212121414--|
A|9999999999999912121212121212121212121212121414--|
E|7777777777777710101010101010101010101010101212--|
But Ill just wait untill shes by my side.

Chorus:
e|------------------------------------------|
B|------------------------------------------|
G|--9999x9999x9999x9999x--------------------|
D|--9999x9999x9999x9999x9999x9999x9999x9999x|
A|--7777x7777x7777x7777x9999x9999x9999x9999x|
E|----------------------7777x7777x7777x7777x|

e|---------------------------------------------------------|
B|---------------------------------------------------------|
G|---------------------------------------------------------|
D|11111111x11111111x11111111x11111111x7777x7777x7777x7777x-| x2
A|11111111x11111111x11111111x11111111x7777x7777x7777x7777x-|
E|-9-9-9-9x-9-9-9-9x-9-9-9-9x-9-9-9-9x5555x5555x5555x5555x-|
You can take  these presents, 
underneath my tree, 
you can take this awsome scarf my grandma made for me.
 You can take these boxes tied up with string 
cause all I want for Christmas is the girl of my dreams


e|---------------------------------|
B|---------------------------------|
G|---------------------------------|
D|---------------------------------| x2    *sorry don't know the
A|--1216-14-13-11-9-11-14-9-------|           little part after this.
E|---------------------------------|
Falalalala, lalalala
 Faaaa la la laaa.

You can take  these presents, 
underneath my tree, 
you can take this awsome scarf my grandma made for me.


e|---------------------------------------------------------------------------|
B|---------------------------------------------------------------------------|
G|99-------------------------------------------------------------------------|
D|99-------------------99----------------11111111111111111111111111777777777-|
A|77-------------------99----------------11111111111111111111111111777777777-|
E|---------------------77-----------------9-9-9-9-9-9-9-9-9-9-9-9-9555555555-|
      I would give it all just to let you see that all I want for christmas 
e|---------------------------------------------------------------------------|
B|---------------------------------------------------------------------------|
G|---------------------------------------------------------------------------|
D|--777777777777777777777777-------------------------------------------------|
A|--777777777777777777777777-------------------------------------------------|
E|--555555555555555555555555-------------------------------------------------|
    is the girl of my dreams

Chorus:
e|------------------------------------------|
B|------------------------------------------|
G|--9999x9999x9999x9999x--------------------|
D|--9999x9999x9999x9999x9999x9999x9999x9999x|
A|--7777x7777x7777x7777x9999x9999x9999x9999x|
E|----------------------7777x7777x7777x7777x|

e|---------------------------------------------------------|
B|---------------------------------------------------------|
G|---------------------------------------------------------|
D|11111111x11111111x11111111x11111111x7777x7777x7777x7777x-| x2
A|11111111x11111111x11111111x11111111x7777x7777x7777x7777x-|
E|-9-9-9-9x-9-9-9-9x-9-9-9-9x-9-9-9-9x5555x5555x5555x5555x-|
You can take  these presents, 
underneath my tree, 
you can take this awsome scarf my grandma made for me.
 I would give it all just to let you see
that all I want for Christmas is the girl of my dreams


e|------------------------|
B|------------------------|
G|--9-8-7-6-5-4-2~~-------|  
D|--9-8-7-6-5-4-2~~-------|
A|--7-6-5-4-3-2-0~~-------|
E|------------------------|
Sorry don't know ending solo either.


| /  slide up
|   slide down
| h  hammer-on
| p  pull-off
| ~  vibrato
| x  harmonic
| *  Mute note
===============================================================================

 
 
Jonas Brothers - Girl Of My Dreams Tab :: indexed at Ultimate Guitar.
Girl Of My Dreams tabs @ 911Tabs

About the artist behind Girl Of My Dreams Tab:

The Jonas Brothers are an American pop-rock band from Wyckoff, New Jersey made up of three brothers: Kevin, Joe, and Nick Jonas. They have released two albums - It's About Time in 2006, and Jonas Brothers in 2007, and will release A Little Bit Longer in 2008.

Indexed at Wikipedia.

Show us your talent, perform Girl Of My Dreams Tab!

Here you can post a video or audio performance. Tell me more ...
Where can we find your performance? Tell me more ...
Your comment:
Please, log in to post your performance.