Artists by letter: A B C D E F G H I J K L M N O P Q R S T U V W X Y Z 0-9

 
Move Your Feet
-------------------------------------------------------------------------------
                             Move Your feet - Junior Senior
-------------------------------------------------------------------------------
Tabbed by: Rob Freeman
E-mail:[email protected]

Tuning: Standard

Intro - 
e|---------------------------------------------------------------------------|
B|----5--------8-7-----------------------------------------------------------|
G|-------5-------------------------------------------------------------------|
D|----------7----------------------------------------------------------------|
A|---------------------------------------------------------------------------|
E|---------------------------------------------------------------------------|

First Chorus -(Everybody, move your feet and feeling naughty)
e|-----------------------------------------------------------------3-----3---|
B|---7--7--5-----------------7--5--7-----5--5--3----------------------5------|
G|------------7--4----4--4-------------------------5--2----2--2--------------|
D|---------------------------------------------------------------------------|
A|---------------------------------------------------------------------------|
E|---------------------------------------------------------------------------|

Interlude - (Going downtown)
e|---------------------------------------------------------------------------|
B|---------------------------------------------------------------------------|
G|----7--7/9--9--2--22/-9--7-------------------------------------------------|
D|----7--7/9--7--2--22/-9--7-REPEAT X4---------------------------------------|
A|----5--5/7--7--0--00/-7--5-------------------------------------------------|
E|---------------------------------------------------------------------------|

First Verse
Just put loads of scratch notes where required

Second Chorus (Repeat)

Interlude (Repeat)

Second Verse (Repeat)

Third Chorus (Repeat)

Interlude part three (Oh Yeah!)
Play these bar chords - Dm /// Em / Am ////

The intro then comes back in....

And finally a double chorus comes in at the end, the final chord at the end is just an Am

Thanks for viewing!


 
 
Junior Senior - Move Your Feet :: indexed at Ultimate Guitar.
Move Your Feet tabs @ 911Tabs
People who played Junior Senior - Move Your Feet also played these songs by Junior Senior:
Move Your Feet Tab, Move Your Feet Tab, Shake Your Coconuts Tab, Move Your Feet Tab, Shake Your Coconuts, Move Your Feet

Quick tip, so you can enjoy Move Your Feet even more:

If you spend just 10 seconds to register, you will be able to comment on all the chords and tabs and rate them. You will as well be able to comment on videos of your fellow guitarists and give them ratings from 1 to 5 ... And - of course - you can share your own videos with them and see what they think of you. :)
Click here to join us!

Show us your talent, perform Move Your Feet!

Here you can post a video or audio performance. Tell me more ...
Where can we find your performance? Tell me more ...
Your comment:
Please, log in to post your performance.