Artists by letter: A B C D E F G H I J K L M N O P Q R S T U V W X Y Z 0-9

 
Lavender Town Theme
Based off of the sheet music that anyone can find by Googling "Lavender Town Sheet Music,"
here is the tabliture for how to play the Lavender Town theme on guitar. It is suggested
that you play with your fingers holding the corresponding 5, 6, and 7 frets and letting
off of the corresponding 8th fret when required. There's no real variation, so play it
however you see fit.

/----------------------------------/
/       "--" = quarter note        /
/       "----" = half note         /
/----------------------------------/



Intro:

e:------------7-----------7-----------7-----------7--------------------------------------
B:---------8-----6-----8-----6-----8-----6-----8-----6-----------------------------------
G:------5-----------5-----------5-----------5--------------------------------------------
D:---------------------------------------------------------------------------------------
A:---------------------------------------------------------------------------------------
E:---------------------------------------------------------------------------------------

Verse:

e:-----------------------------------7---------------------------------------------------
B:------8----8----5----5----8--7--5------------------------------------------------------
G:--------------------------------------6----6-------------------------------------------
D:---------------------------------------------------------------------------------------
A:---------------------------------------------------------------------------------------
E:---------------------------------------------------------------------------------------

e:--------------------------7--------7--8------------------------------------------------
B:------8----8----6----6-------8--6------------------------------------------------------
G:---------------------------------------------------------------------------------------
D:---------------------------------------------------------------------------------------
A:---------------------------------------------------------------------------------------
E:---------------------------------------------------------------------------------------

e:-----------------------------------7---------------------------------------------------
B:------8----8----5----5----8--7--5------------------------------------------------------
G:--------------------------------------6----6-------------------------------------------
D:---------------------------------------------------------------------------------------
A:---------------------------------------------------------------------------------------
E:---------------------------------------------------------------------------------------

e:------------7-----------7-----------7--------------------------------------------------
B:---------8-----6-----8-----6-----8-----6-----------------------------------------------
G:------5-----------5-----------5-----------7----7---------------------------------------
D:---------------------------------------------------------------------------------------
A:---------------------------------------------------------------------------------------
E:---------------------------------------------------------------------------------------

 
 
Junichi Masuda - Lavender Town Theme :: indexed at Ultimate Guitar.
Lavender Town Theme tabs @ 911Tabs
People who played Junichi Masuda - Lavender Town Theme also played these songs by Junichi Masuda:
Pokemon Poke Center Tab, Lavender Town Theme Tab, Lavender Town Tab, Pokemon Poke Center, Lavender Town

Quick tip, so you can enjoy Lavender Town Theme even more:

YourChords.com Guitar Chords and Tabs Archive is currently indexing over 240'000 songs from 21'000+ different artists. And new chords just keep on coming in, so you will surely never run out of them.

Show us your talent, perform Lavender Town Theme!

Here you can post a video or audio performance. Tell me more ...
Where can we find your performance? Tell me more ...
Your comment:
Please, log in to post your performance.