Artists by letter: A B C D E F G H I J K L M N O P Q R S T U V W X Y Z 0-9

 
Virus
B ||--------------------------|-------------------------|
F#||--------------------------|-------------------------|
D ||--------------------------|-------------------------|
A ||--5--4--------5--4--7--6--|--5--4--------5--4--7----|
E ||--5--4--5--4--5--4--7--6--|--5--4--5--4--5--4--7----|
B ||--3--2--3--2--3--2--5--4--|--3--2--3--2--3--2--5----|

--------------------------|-------------------------|--------------------------|
--------------------------|-------------------------|--------------------------|
--------------------------|-------------------------|--------------------------|
--5--4--------5--4--7--6--|--5--4--------5--4--7----|--5--4--------5--4--7--6--|
--5--4--5--4--5--4--7--6--|--5--4--5--4--5--4--7----|--5--4--5--4--5--4--7--6--|
--3--2--3--2--3--2--5--4--|--3--2--3--2--3--2--5----|--3--2--3--2--3--2--5--4--|

-------------------------|--------------------------|-------------------------|
-------------------------|--------------------------|-------------------------|
-------------------------|--------------------------|-------------------------|
--5--4--------5--4--7----|--5--4--------5--4--7--6--|--5--4--------5--4--7----|
--5--4--5--4--5--4--7----|--5--4--5--4--5--4--7--6--|--5--4--5--4--5--4--7----|
--3--2--3--2--3--2--5----|--3--2--3--2--3--2--5--4--|--3--2--3--2--3--2--5----|

--------------------------|-------------------------|--------------------------|
--------------------------|-------------------------|--------------------------|
--------------------------|-------------------------|--------------------------|
--5--4--------5--4--7--6--|--5--4--------5--4--7----|--5--4--------5--4--7--6--|
--5--4--5--4--5--4--7--6--|--5--4--5--4--5--4--7----|--5--4--5--4--5--4--7--6--|
--3--2--3--2--3--2--5--4--|--3--2--3--2--3--2--5----|--3--2--3--2--3--2--5--4--|

hold for 2 and a half bars
-------------------------|--------------------------|-------------------------|
-------------------------|--------------------------|-------------------------|
-------------------------|--------------------------|-------------------------|
--5--4--------5--4--7----|--5--4--------5--4--7--6--|--5--4--------5--4--7----|
--5--4--5--4--5--4--7----|--5--4--5--4--5--4--7--6--|--5--4--5--4--5--4--7----|
--3--2--3--2--3--2--5----|--3--2--3--2--3--2--5--4--|--3--2--3--2--3--2--5----|

----------------------------------|---------------------------------|
----------------------------------|---------------------------------|
----------------------------------|---------------------------------|
----------------------------------|---------------------------------|
----------------------------------|------------------------------4--|
--3-2-3-2-3-2-5-3-3-2-3-2-3-2-5-3-|--3-2-3-2-3-2-5-3-3-2-3-2-3-2-2--|

----------------------------------|---------------------------------|
----------------------------------|---------------------------------|
----------------------------------|---------------------------------|
----------------------------------|---------------------------------|
----------------------------------|------------------------------4--|
--3-2-3-2-3-2-5-3-3-2-3-2-3-2-5-3-|--3-2-3-2-3-2-5-3-3-2-3-2-3-2-2--|

----------------------------------|----------------------------------|
----------------------------------|----------------------------------|
----------------------------------|----------------------------------|
----------------------------------|----------------------------------|
----------------------------------|----------------------------------|
--3p2-3p2-3p2-5p3-3p2-3p2-3p2-5p3-|--3p2-3p2-3p2-5p3-3p2-3p2-3p2-5p3-|

----------------------------------|----------------------------------|
----------------------------------|----------------------------------|
----------------------------------|----------------------------------|
----------------------------------|----------------------------------|
----------------------------------|----------------------------------|
--3p2-3p2-3p2-5p3-3p2-3p2-3p2-5p3-|--3p2-3p2-3p2-5p3-3p2-3p2-3p2-5p3-|

----------------------------------|---------------------------------|
----------------------------------|---------------------------------|
----------------------------------|---------------------------------|
----------------------------------|---------------------------------|
----------------------------------|------------------------------4--|
--3-2-3-2-3-2-5-3-3-2-3-2-3-2-5-3-|--3-2-3-2-3-2-5-3-3-2-3-2-3-2-2--|

----------------------------------|---------------------------------|
----------------------------------|---------------------------------|
----------------------------------|---------------------------------|
----------------------------------|---------------------------------|
----------------------------------|------------------------------4--|
--3-2-3-2-3-2-5-3-3-2-3-2-3-2-5-3-|--3-2-3-2-3-2-5-3-3-2-3-2-3-2-2--|

----------------------------------|----------------------------------|
----------------------------------|----------------------------------|
----------------------------------|----------------------------------|
----------------------------------|----------------------------------|
----------------------------------|----------------------------------|
--3p2-3p2-3p2-5p3-3p2-3p2-3p2-5p3-|--3p2-3p2-3p2-5p3-3p2-3p2-3p2-5p3-|

----------------------------------|----------------------------------|
----------------------------------|----------------------------------|
----------------------------------|----------------------------------|
----------------------------------|----------------------------------|
----------------------------------|----------------------------------|
--3p2-3p2-3p2-5p3-3p2-3p2-3p2-5p3-|--3p2-3p2-3p2-5p3-3p2-3p2-3p2-5p3-|

--------------------------|-------------------------|--------------------------|
--------------------------|-------------------------|--------------------------|
--------------------------|-------------------------|--------------------------|
--5--4--------5--4--7--6--|--5--4--------5--4--7----|--5--4--------5--4--7--6--|
--5--4--5--4--5--4--7--6--|--5--4--5--4--5--4--7----|--5--4--5--4--5--4--7--6--|
--3--2--3--2--3--2--5--4--|--3--2--3--2--3--2--5----|--3--2--3--2--3--2--5--4--|

-------------------------|--------------------------|-------------------------|
-------------------------|--------------------------|-------------------------|
-------------------------|--------------------------|-------------------------|
--5--4--------5--4--7----|--5--4--------5--4--7--6--|--5--4--------5--4--7----|
--5--4--5--4--5--4--7----|--5--4--5--4--5--4--7--6--|--5--4--5--4--5--4--7----|
--3--2--3--2--3--2--5----|--3--2--3--2--3--2--5--4--|--3--2--3--2--3--2--5----|

--------------------------|-------------------------|--------------------------|
--------------------------|-------------------------|--------------------------|
--------------------------|-------------------------|--------------------------|
--5--4--------5--4--7--6--|--5--4--------5--4--7----|--5--4--------5--4--7--6--|
--5--4--5--4--5--4--7--6--|--5--4--5--4--5--4--7----|--5--4--5--4--5--4--7--6--|
--3--2--3--2--3--2--5--4--|--3--2--3--2--3--2--5----|--3--2--3--2--3--2--5--4--|

-------------------------|--------------------------|-------------------------|
-------------------------|--------------------------|-------------------------|
-------------------------|--------------------------|-------------------------|
--5--4--------5--4--7----|--5--4--------5--4--7--6--|--5--4--------5--4--7----|
--5--4--5--4--5--4--7----|--5--4--5--4--5--4--7--6--|--5--4--5--4--5--4--7----|
--3--2--3--2--3--2--5----|--3--2--3--2--3--2--5--4--|--3--2--3--2--3--2--5----|

----------------------------------|---------------------------------|
----------------------------------|---------------------------------|
----------------------------------|---------------------------------|
----------------------------------|---------------------------------|
----------------------------------|------------------------------4--|
--3-2-3-2-3-2-5-3-3-2-3-2-3-2-5-3-|--3-2-3-2-3-2-5-3-3-2-3-2-3-2-2--|

----------------------------------|---------------------------------|
----------------------------------|---------------------------------|
----------------------------------|---------------------------------|
----------------------------------|---------------------------------|
----------------------------------|------------------------------4--|
--3-2-3-2-3-2-5-3-3-2-3-2-3-2-5-3-|--3-2-3-2-3-2-5-3-3-2-3-2-3-2-2--|

----------------------------------|---------------------------------|
----------------------------------|---------------------------------|
----------------------------------|---------------------------------|
----------------------------------|---------------------------------|
----------------------------------|------------------------------4--|
--3p2-3p2-3p2-5p3-3p2-3p2-3p2-5p3-|--3p2-3p2-3p2-5p3-3p2-3p2-3p2-2--|

----------------------------------|---------------------------------||
----------------------------------|---------------------------------||
----------------------------------|---------------------------------||
----------------------------------|---------------------------------||
----------------------------------|------------------------------4--||
--3-2-3-2-3-2-5-3-3-2-3-2-3-2-5-3-|--3-2-3-2-3-2-5-3-3-2-3-2-3-2-2--||


 
 
Jungle Rot - Virus :: indexed at Ultimate Guitar.
Virus tabs @ 911Tabs
People who played Jungle Rot - Virus also played these songs by Jungle Rot:
Virus Tab, Virus Tab, Red Skies Tab, Misplaced Anger Tab, Gasping For Air Tab, Psychotic Creation Tab

About the artist behind Virus:

Jungle Rot is an American death metal band founded in Kenosha.

Indexed at Wikipedia.

Show us your talent, perform Virus!

Here you can post a video or audio performance. Tell me more ...
Where can we find your performance? Tell me more ...
Your comment:
Please, log in to post your performance.