Artists by letter: A B C D E F G H I J K L M N O P Q R S T U V W X Y Z 0-9

 
Year 3000
-------------------------------------------------------------------------------
             YEAR 3000 - Jonas Brothers
-------------------------------------------------------------------------------
Tabbed by:Kalie
Email:[email protected]

Tuning:standard

I put alot of work into this tab... Did it three times!! Hope u like it!!!!!

Guitar 1: Lead, Kevin
Guitar 2: Rythym, Nick
Guitar 3: Vocal notes, extra

Intro, guitar one::
e|------------------------------------------------------------------------------|
B|------------------------------------------------------------------------------|
G|-------------4----------------------------------------------------------------|
D|-----------4--4---------------4------------------2--------22-----44-----------|
A|-----2-2--------2----------4----4------------2----2------22----44-------------|
E|---------------------2-2-----------2----0-0----------0---00-----22------------|
  Guitar two:: (comes in secound time around))
e|-------------------------------------------------------------------------------|
B|-------------------------------------------------------------------------------|
G|----44-------------------------------------------------------------------------|
D|----44------44------22-----24--------------------------------------------------|
A|---22------44------22------24--------------------------------------------------|
E|------------22------00-----02--------------------------------------------------|

Verse One::
Guitar two, Idle
Guiar one::
e|-------------------------------------------------------------------------------|
B|-------------------------------------------------------------------------------|
G|----44-------------------------------------------------------------------------|
D|----44------44------22-----24--------------------------------------------------|
A|---22------44------22------24--------------------------------------------------|
E|------------22------00-----02--------------------------------------------------|

e|------------------------------------------------|
B|-----4------------------------------------------|
G|------4------6------3------4-----1--------------|
D|--------4--------------4-----------------2---3--| Keep repeating....
A|------------------------------------------------|
E|------------------------------------------------|

.... he told me he....
guitar one::
e|---------------------------------------------------------------------------------|
B|---------------------------------------------------------------------------------|
G|----4----4-----------------------------------------------------------------------|
D|----4--4-----4---4---2----2---2--------------------------------------------------|
A|----2--------4--4----2--2-----2----keep strumming--------------------------------|
E|-------------2--------0--------0-------------------------------------------------|
  Guitar three::
e|---------------------------------------------------------------------------|
B|--44444444--2--2-----------------------------------------------------------|
G|----------------4-----111------1-------------------------------------------|
D|------------------------------4----4---------------------------------------|
A|---------------------------------------------------------------------------|
E|---------------------------------------------------------------------------|

Chorus

Guitar one::

e|-----------------------------------------------------------------------------|
B|-----------------------------------------------------------------------------|
G|--9--------------------------------------------------------------------------|
D|--9----9------7---------77---99-------------------------------------------|--|
A|--7----9-------7--------77--99-----------------------------------------------|
E|-------7-------5--------55--77-----------------------------------------------|
  Guitar two::
 
e|------------------------------------------------------------------------------|
B|------------------------------------------------------------------------------|
G|----44------------------------------------------------------------------------|
D|----44------44------22-----24-------------------------------------------------|
A|---22------44------22------24-------------------------------------------------|
E|------------22------00-----02-------------------------------------------------|

Guitar three::
e|------------------------------------------------------------------------------|
B|-------4---2--------2---------------------------------------------------------|
G|-444------------4-----4----1--------------------------------------------------|
D|-----------------------------------4------------------------------------------|
A|------------------------------------------------------------------------------|
E|------------------------------------------------------------------------------|

Verse two:
Guitar one:: same
Guitar two:: idle
Guitar three:: same

Bridge::

Guitar one:: ((first time around only))
e|-------------------------------------------------------------------------------|
B|-------------------------------------------------------------------------------|
G|----44-------------------------------------------------------------------------|
D|----44------44------22-----24--------------------------------------------------|
A|---22------44------22------24--------------------------------------------------|
E|------------22------00-----02--------------------------------------------------|

Secound Time around::
e|-----------------------------------------------------------------------------|
B|-----------------------------------------------------------------------------|
G|--9--------------------------------------------------------------------------|
D|--9----9------7---------77---99-------------------------------------------|--|
A|--7----9-------7--------77--99-----------------------------------------------|
E|-------7-------5--------55--77-----------------------------------------------|

Guitar Two:: ((comes in secound time around))
|--------------------------------------------------------------------------------|
B|-------------------------------------------------------------------------------|
G|----44-------------------------------------------------------------------------|
D|----44------44------22-----24--------------------------------------------------|
A|---22------44------22------24--------------------------------------------------|
E|------------22------00-----02--------------------------------------------------|

Guitar Three::
e|---------------------------------------------------------------------------|
B|----------------2------------------4---2-----------------------------------|
G|--44444444-------4------4444-----------2-----------------------------------|
D|---------------------------------------------------------------------------|
A|---------------------------------------------------------------------------|
E|---------------------------------------------------------------------------|

Choruses to Finish... Yay!! Comments and ratings are appreciated!!!!! Thxnks, Luv, Kalie


 
 
Jonas Brothers - Year 3000 :: indexed at Ultimate Guitar.
Year 3000 tabs @ 911Tabs

About the artist behind Year 3000:

The Jonas Brothers are an American pop-rock band from Wyckoff, New Jersey made up of three brothers: Kevin, Joe, and Nick Jonas. They have released two albums - It's About Time in 2006, and Jonas Brothers in 2007, and will release A Little Bit Longer in 2008.

Indexed at Wikipedia.

Show us your talent, perform Year 3000!

Here you can post a video or audio performance. Tell me more ...
Where can we find your performance? Tell me more ...
Your comment:
Please, log in to post your performance.