Artists by letter: A B C D E F G H I J K L M N O P Q R S T U V W X Y Z 0-9

 
Turn Right
Turn Right by the Jonas Brothers
- Tabbed by Andrea " www.everythingjonas.com

This is my first tab! -I'm pretty sure it's almost 100% accurate. I edited the tab I 
added to include the entire song since it was released for the Walmart Soundcheck after I 
the beginning tabbed.

- I’ll probably make a how to play video soon so that this tab will be less confusing :)

- EDITED ONCE AGAIN: I just heard the STUDIO VERSION, and I edited the tab to include 
outro from the studio version (they did it differently for the Walmart Soundcheck).

Capo 1

Intro/Verse
e|----------------3------|
B|-----3------3-----3----|
G|----0------2-----------|   x2 for the intro
D|----------0"-0h2-------|   x4 for each verse
A|---2--3----------------|
E|-----------------------|

Chorus
e|----------------3------|
B|-----3------3-----3----|
G|----0------2-----------|   x2
D|----------0"-0h2-------|
A|---2--3----------------|
E|-----------------------|

e|---------------------3------|
B|-----3-------3------3-------|
G|----0-------0------0--------|
D|-----------"----------------|
A|---2--3----------3----------|
E|----------3--2--------------|

- Repeat verse and chorus -

Bridge (Strum the chords)

D     Cadd9  G
I did all I could

D     Cadd9 G
I gave everything

Em     D       Cadd9
But you had to go your way

Em       D       Cadd9
And that road was not for me

Chorus (This last one is strummed)

G   Cadd9
So turn right

D       Em
Into my arms

G  Cadd9
Turn right

D    Em
You won't be alone

G  Cadd9
You might

G              D           Cadd9
Fall off those tracks some times

Hope to see you at the finish line

Outro (Studio Version)
e|----------------3------|
B|-----3------3-----3----|
G|----0------2-----------|
D|----------0"-0h2-------|
A|---2--3----------------|
E|-----------------------|
 
 
Jonas Brothers - Turn Right :: indexed at Ultimate Guitar.
Turn Right tabs @ 911Tabs

About the artist behind Turn Right:

The Jonas Brothers are an American pop-rock band from Wyckoff, New Jersey made up of three brothers: Kevin, Joe, and Nick Jonas. They have released two albums - It's About Time in 2006, and Jonas Brothers in 2007, and will release A Little Bit Longer in 2008.

Indexed at Wikipedia.

Show us your talent, perform Turn Right!

Here you can post a video or audio performance. Tell me more ...
Where can we find your performance? Tell me more ...
Your comment:
Please, log in to post your performance.