Artists by letter: A B C D E F G H I J K L M N O P Q R S T U V W X Y Z 0-9

Thats Just The Way We Roll (ver 4) - Jonas Brothers


 
Thats Just The Way We Roll
-------------------------------------------------------------------------------
            THAT'S JUST THE WAY WE ROLL - Jonas Brothers
-------------------------------------------------------------------------------
Tabbed by:Kalie
Email:---

Tuning:standard

*pretty sure of accuracy... awesome song!!! hope you like it. kevin's riff is not
mine to claim. it was posted by guitarhead27, but i added it in.
*also: the 577 on the a string could be substituted for a 577 on the E string. you
what sounds better.

Intro:        -xx-xx-
kevin's riff: xxxxxxx
              -xxxxx-JB LOVE
              --xxx--
              ---x-------------------------------------------------------------|
e|-14-10---9h10-10-10-10-9/10--9-----------------------------------------------|
B|-------------------------------12--------------------------------------------|
G|----------------------------------------------x2-----------------------------|
D|-----------------------------------------------------------------------------|
A|-----------------------------------------------------------------------------|
E|-----------------------------------------------------------------------------|

OR:
e|----2--------------------------------------------------------------------------|
B|------3---2-3-3-3-2h3---2------------------------------------------------------|
G|------------------------------4---------------x2-------------------------------|
D|-------------------------------------------------------------------------------|
A|-------------------------------------------------------------------------------|
E|-------------------------------------------------------------------------------|

Nick's riff:
e|---------------------------------------------------------------------------|
B|---------------------------------------------------------------------------|
G|-----------7---------------------------------------------------------------|
D|---9-------7-------5-------------x2----------------------------------------|
A|---9-------5-------5-------------------------------------------------------|
E|---7---------------3-------------------------------------------------------|

Verse One:
Nick's Guitar:(Strum chords)
e|---------------------------------------------------------------------------|
B|---------------------------------------------------------------------------|
G|-----------7---------------------------------------------------------------|
D|---9-------7-------5-------------x2----------------------------------------|
A|---9-------5-------5-------------------------------------------------------|
E|---7---------------3-------------------------------------------------------|
Joe: I woke up/ on my roof/ with my brothers/ there's a whale/ in the pool/ with
my mother/ and my dad/ paints the house/ different colors/

Kevin's Guitar:Strum Chords (last chord hit once)
e|---------------------------------------------------------------------------|
B|---------------------------------------------------------------------------|
G|------------------7--------------------------------------------------------|
D|-----9------------7------7-------------5-----------------------------------|
A|-----9------------5------7-------------5-----------------------------------|
E|-----7-------------------5-------------3-----------------------------------|
 Joe: were would we be/ if we couldn't dream/

CHORUS:
Nick's Guitar: ( on ...never gonna fake it... repeat the first 2 chords)
e|---------------------------------------------------------------------------|
B|---------------------------------------------------------------------------|
G|----------------------------------7----------------------------------------|
D|------------9---------------------7-----------7--------------------5-------|
A|------------9---------------------5-----------7--------------------5-------|
E|------------7---------------------------------5--------------------3-------|
 Nick: and i know/ we get alittle crazy/ and i know/ we get alittle loud/
       and i know/ were never gonna fake it/

Kevin's Guitar:
e|---------------------------------------------------------------------------|
B|---------------------------------------------------------------------------|
G|--------------------------------------7------------------------------------|
D|--------------9-----------------------7-----------------------7------------|
A|--------------9-----------------------5-----------------------7------------|
E|--------------7-----------------------------------------------5------------|
 Nick: we are wild we are free/ we are more than you think/ so call us freaks
e|---------------------------------------------------------------------------|
B|---------------------------------------------------------------------------|
G|---------------------------------------------------------------------------|
D|-----5---------------------------------------------------------------------|
A|-----5---------------------------------------------------------------------|
E|-----3---------------------------------------------------------------------|
  But that's just the way we roll

e|-14-10---9h10-10-10-10-9/10--9---------------------------------------------|
B|-------------------------------12------------------------------------------|
G|----------------------------------------------x2---------------------------|
D|---------------------------------------------------------------------------|
A|---------------------------------------------------------------------------|
E|---------------------------------------------------------------------------|
  Nick's riff:
e|---------------------------------------------------------------------------|
B|---------------------------------------------------------------------------|
G|-----------7---------------------------------------------------------------|
D|---9-------7-------5-------------x2----------------------------------------|
A|---9-------5-------5-------------------------------------------------------|
E|---7---------------3-------------------------------------------------------|

VERSE TWO:

Nick's riff:
e|---------------------------------------------------------------------------|
B|---------------------------------------------------------------------------|
G|-----------7---------------------------------------------------------------|
D|---9-------7-------5-------------x2----------------------------------------|
A|---9-------5-------5-------------------------------------------------------|
E|---7---------------3-------------------------------------------------------|
  Joe: you've got moves/ i've got shoes/ let's go dancing/ pop and lock/ batt-
le dance/ against hansen/ if we loose/ all the girls/ they'll be laughing/

Kevin's Guitar:Strum Chords (last chord hit once)
e|-----------------------------------------------------------------------------|
B|-----------------------------------------------------------------------------|l
G|------------------7----------------------------------------------------------|
D|-----9------------7------7-------------5-------------------------------------|
A|-----9------------5------7-------------5-------------------------------------|
E|-----7-------------------5-------------3-------------------------------------|
 Joe: were would we be/ if we couldn't dream/
CHORUS:
Nick's Guitar: ( on ...never gonna fake it... repeat the first 2 chords)
e|---------------------------------------------------------------------------|
B|---------------------------------------------------------------------------|
G|----------------------------------7----------------------------------------|
D|------------9---------------------7-----------7--------------------5-------|
A|------------9---------------------5-----------7--------------------5-------|
E|------------7---------------------------------5--------------------3-------|
 Nick: and i know/ we get alittle crazy/ and i know/ we get alittle loud/
       and i know/ were never gonna fake it/

Kevin's Guitar:
e|---------------------------------------------------------------------------|
B|---------------------------------------------------------------------------|
G|--------------------------------------7------------------------------------|
D|--------------9-----------------------7-----------------------7------------|
A|--------------9-----------------------5-----------------------7------------|
E|--------------7-----------------------------------------------5------------|
 Nick: we are wild we are free/ we are more than you think/ so call us freaks
e|---------------------------------------------------------------------------|
B|---------------------------------------------------------------------------|
G|---------------------------------------------------------------------------|
D|-----5---------------------------------------------------------------------|
A|-----5---------------------------------------------------------------------|
E|-----3---------------------------------------------------------------------|
  But that's just the way we roll

e|-14-10---9h10-10-10-10-9/10--9---------------------------------------------|
B|-------------------------------12------------------------------------------|
G|----------------------------------------------x2---------------------------|
D|---------------------------------------------------------------------------|
A|---------------------------------------------------------------------------|
E|---------------------------------------------------------------------------|
  Nick's riff:
e|---------------------------------------------------------------------------|
B|---------------------------------------------------------------------------|
G|-----------7---------------------------------------------------------------|
D|---9-------7-------5-------------x2----------------------------------------|
A|---9-------5-------5-------------------------------------------------------|
E|---7---------------3-------------------------------------------------------|
 BRIDGE:
 Kevin's Guitar: ( first two chords, strum on each syllable)
e|---------------------------------------------------------------------------|
B|---------------------------------------------------------------------------|
G|-------------------------------------7-------------------------------------|
D|-----------------9-------------------7---------------5------7--------------|
A|-----------------9-------------------5---------------5------7--------------|
E|-----------------7-----------------------------------3------5--------------|
  Cuz we're old enough to know/ we're never letting go/ cuz that's just the way
  we roll
* Repeat chorus, but this time is only drums.

CHORUS:
Nick's Guitar: ( on ...never gonna fake it... repeat the first 2 chords)
e|---------------------------------------------------------------------------|
B|---------------------------------------------------------------------------|
G|----------------------------------7----------------------------------------|
D|------------9---------------------7-----------7--------------------5-------|
A|------------9---------------------5-----------7--------------------5-------|
E|------------7---------------------------------5--------------------3-------|
 Nick: and i know/ we get alittle crazy/ and i know/ we get alittle loud/
       and i know/ were never gonna fake it/

Kevin's Guitar:
e|---------------------------------------------------------------------------|
B|---------------------------------------------------------------------------|
G|--------------------------------------7------------------------------------|
D|--------------9-----------------------7-----------------------7------------|
A|--------------9-----------------------5-----------------------7------------|
E|--------------7-----------------------------------------------5------------|
 Nick: we are wild we are free/ we are more than you think/ so call us freaks
e|---------------------------------------------------------------------------|
B|---------------------------------------------------------------------------|
G|---------------------------------------------------------------------------|
D|-----5---------------------------------------------------------------------|
A|-----5---------------------------------------------------------------------|
E|-----3---------------------------------------------------------------------|
  But that's just the way we roll

e|-14-10---9h10-10-10-10-9/10--9---------------------------------------------|
B|-------------------------------12------------------------------------------|
G|---------------------------------------------------------------------------|
D|---------------------------------------------------------------------------|
A|---------------------------------------------------------------------------|
E|---------------------------------------------------------------------------|
  Nick's riff:
e|---------------------------------------------------------------------------|
B|---------------------------------------------------------------------------|
G|-----------7---------------------------------------------------------------|
D|---9-------7-------5-----------------------------------------------5-------|
A|---9-------5-------5-----------------------------------------------5-------|
E|---7---------------3-----------------------------------------------3-------|
 that's just the way we roll/ ooh/ that's just the way we roll/

Thanks and peace out!!! hope you liked it! please rate, and i love comments! ---jonasgurl
 
 
Jonas Brothers - Thats Just The Way We Roll :: indexed at Ultimate Guitar.
Thats Just The Way We Roll tabs @ 911Tabs

About the artist behind Thats Just The Way We Roll:

The Jonas Brothers are an American pop-rock band from Wyckoff, New Jersey made up of three brothers: Kevin, Joe, and Nick Jonas. They have released two albums - It's About Time in 2006, and Jonas Brothers in 2007, and will release A Little Bit Longer in 2008.

Indexed at Wikipedia.

Show us your talent, perform Thats Just The Way We Roll!

Here you can post a video or audio performance. Tell me more ...
Where can we find your performance? Tell me more ...
Your comment:
Please, log in to post your performance.