Artists by letter: A B C D E F G H I J K L M N O P Q R S T U V W X Y Z 0-9

 
Fall
okay. so here is the tab for Fall by the Jonas Brothers. a lot of the other tabs for 
just had the preview version so here is the WHOLE song. it sounds right to me but correct 
if im wrong.  enjoy!

Intro:
e----------------------------------------------|
B----------------------------------------------|
G--7-------------------------------------------|
D--7---7---5---9--7----------------------------|
A--5---7---5---9--7----------------------------|
E------5---3---7--5----------------------------|

Verse 1: 0:14
e------------------------------------------------------|
B------------------------------------------------------|
G-------------------------------7----------------------|
D--5-5-7-----4-4-5-----5-5-7----7--------3-------5-----|
A--5-5-7-----4-4-5-----5-5-7----5--------3-------5-----|
E--3-3-5-----2-2-3-----3-3-5-------------1-------3-----|
                               dont know what to feel

e-------------------------------------------------------|
B-------------------------------------------------------|
G--------------------------------7----------------------|
D--5-5-7-----4-4-5-----5-5-7-----7-----3------5---------|
A--5-5-7-----4-4-5-----5-5-7-----5-----3------5---------|
E--3-3-5-----2-2-3-----3-3-5-----------1------3---------|
                              let me know that you'll be here

e----------------------------------|
B----------------------------------|
G----------------------------------|
D----------7-----------------------|
A----------7-----------------------|
E----------5-----------------------|
   let me know that you'll be here

Chorus: 0:41
e---------------------------|
B---------------------------|
G--7------------------------|
D--7---7---5---9--7---------| x2
A--5---7---5---9--7---------|
E------5---3---7--5---------|

Post Chorus: 1:05
e------------------------------|
B------------------------------|
G------------------------------|
D---5-5-7-----4-4-5------------|
A---5-5-7-----4-4-5------------|
E---3-3-5-----2-2-3------------|

Verse 2: 1:10
e-------------------------------------------------------|
B-------------------------------------------------------|
G---------------------------------7---------------------|
D--5-5-7------4-4-5-----5-5-7-----7-----3--------5------|
A--5-5-7------4-4-5-----5-5-7-----5-----3--------5------|
E--3-3-5------2-2-3-----3-3-5-----------1--------3------|
                                  under the same stars

e-------------------------------------------------------|
B-------------------------------------------------------|
G------------------------------7------------------------|
D--5-5-3----4-4-5-----5-5-7----7-------3--------5-------|
A--5-5-3----4-4-5-----5-5-7----5-------3--------5-------|
E--3-3-1----2-2-3-----3-3-5------------1--------3-------|
                               finally let this go

e---------------------------------------------------------|
B---------------------------------------------------------|
G---------------------------------------------------------|
D---------7-----------------------------------------------|
A---------7-----------------------------------------------|
E---------5-----------------------------------------------|
   i can finally let you know

Chorus: 1:37
e---------------------------|
B---------------------------|
G--7------------------------|
D--7---7---5---9--7---------| x2
A--5---7---5---9--7---------|
E------5---3---7--5---------|

Bridge: 2:01
e-------------------------------------------------------|
B-------------------------------------------------------|
G-------------------------------------------------------|
D--5-----------7--------5-----------7-------------------|
A--5-----------7--------5-----------7-------------------|
E--3-----------5--------3-----------5-------------------|
   to fall    to fall   to fall    to fall

e-------------------------------------------------------|
B-------------------------------------------------------|
G---------------------------------------------------7~--|
D--5--------7---------5-----------7-----------------7~--|
A--5--------7---------5-----------7-----------------5~--|
E--3--------5---------3-----------5---------------------|
   to fall  to fall   to fall    to fall

2:26
e--------------------0---------------------------3------|
B--------------------2---------------------------3------|
G--------------------2---------------------------0------|
D--------------------2---------------------------0------|
A------------------------------------------------2------|
E------------------------------------------------3------|
  I'm not afraid to fall.  if you're the one who catches

e------2-------------------0----------------------------|
B------3-------------------2----------------------------|
G------4-------------------2----------------------------|
D------4-------------------2----------------------------|
A------2------------------------------------------------|
E-------------------------------------------------------|
  me.  tell me that you'll be there when I'm

Chorus: 2:37
e---------------------------|
B---------------------------|      on the 4th time dont play
G--7------------------------|      the last 2 chords, just go
D--7---7---5---9--7---------| x4   straight to the outro.
A--5---7---5---9--7---------|
E------5---3---7--5---------|

Outro: 3:09
e-------------------------------------------------------|
B-------------------------------------------------------|
G-------------------------------------------------------|
D--9-------------7----9----------7---5------------------|
A--9-------------7----9----------7---5------------------|
E--7-------------5----7----------5---3------------------|
   sometimes its ok,  it will be ok, sometimes its ok

e-------------|
B-------------|
G-------------|
D-----7-------|
A-----7-x5----|
E-----5-------|
   to fall          I'M GONNA FALL!!!!!!!!!!

~enjoy!
 
 
Jonas Brothers - Fall :: indexed at Ultimate Guitar.
Fall tabs @ 911Tabs

About the artist behind Fall:

The Jonas Brothers are an American pop-rock band from Wyckoff, New Jersey made up of three brothers: Kevin, Joe, and Nick Jonas. They have released two albums - It's About Time in 2006, and Jonas Brothers in 2007, and will release A Little Bit Longer in 2008.

Indexed at Wikipedia.

Show us your talent, perform Fall!

Here you can post a video or audio performance. Tell me more ...
Where can we find your performance? Tell me more ...
Your comment:
Please, log in to post your performance.