Artists by letter: A B C D E F G H I J K L M N O P Q R S T U V W X Y Z 0-9

 
Eternity
YAY!  Did this ENTIRELY by ear!  I tried to make this as easy to learn as I could, and 
pretty sure this is 99.999% correct.  There might be some minor errors.

INTRO:
e---0----x--0-----x--0-----x--0------x--0------x--0------x--0------0------x-|
B---0----x--0--0--x--0-----x--0---0--x--0------x--0---0--x--0------0---0--x-|
G---8h9--x--9-----x--9h11--x--11-----x--11h13--x--13-----x--13h14--14-----x-|
D--------x--------x--------x---------x---------x---------x----------------x-|
A--------x--------x--------x---------x--0------x--0------x--0------0------x-|
E---0----x--0-----x--0-----x--0------x---------x---------x----------------x-|

VERSE:  (x2)
e---0----x--0-----x--0-----x--0------x--0------x--0------x--0------0------x-|
B---0----x--0--0--x--0-----x--0---0--x--0------x--0---0--x--0------0---0--x-|
G---8h9--x--9-----x--9h11--x--11-----x--11h13--x--13-----x--13h14--14-----x-|
D--------x--------x--------x---------x---------x---------x----------------x-|
A--------x--------x--------x---------x--0------x--0------x--0------0------x-|
E---0----x--0-----x--0-----x--0------x---------x---------x----------------x-|

PRE-CHORUS:
e---------x--0--0--x--------x--0--0--x--------x--0--0--x--0-|
B---------x--0--0--x--------x--0--0--x--------x--0--0--x--0-|
G------3--x--3--3--x-----6--x--6--6--x-----3--x--3--3--x--8-|
D------4--x--4--4--x-----7--x--7--7--x-----4--x--4--4--x--9-|
A---------x--4--4--x--------x--7--7--x--------x--4--4--x--9-|
E---2-----x--2--2--x--5-----x--5--5--x--2-----x--2--2--x--7-|

CHORUS:
e---------x--0--0--x--------x--0--0--x--------x--0--0--x--------x--0--0--x-|
B---------x--0--0--x--------x--0--0--x--------x--0--0--x--------x--0--0--x-|
G------9--x--9--9--x-----6--x--6--6--x-----6--x--6--6--x-----8--x--8--8--x-|
D------9--x--9--9--x-----7--x--7--7--x-----6--x--6--6--x-----9--x--9--9--x-|
A---7-----x--7--7--x--------x--7--7--x--4-----x--4--4--x--------x--9--9--x-|
E---------x--0--0--x--5-----x--5--5--x--------x--0--0--x--7-----x--7--7--x-|

e---------x--0--0--x--------x--0--0--x--------x--0--0--x--0-|
B---------x--0--0--x--------x--0--0--x--------x--0--0--x--0-|
G------9--x--9--9--x-----6--x--6--6--x-----6--x--6--6--x--8-|
D------9--x--9--9--x-----7--x--7--7--x-----6--x--6--6--x--9-|
A---7-----x--7--7--x--------x--7--7--x--4-----x--4--4--x--9-|
E---------x--0--0--x--5-----x--5--5--x--------x--0--0--x--7-|

PLAY THIS BEFORE VERSE:
e---0----x--0-----x--0-----x--0------x--0------x--0------x--0------0------x---|
B---0----x--0--0--x--0-----x--0---0--x--0------x--0---0--x--0------0---0--x---|
G---8h9--x--9-----x--9h11--x--11-----x--11h13--x--13-----x--13h14--14-----x---|
D--------x--------x--------x---------x---------x---------x----------------x---|
A--------x--------x--------x---------x--0------x--0------x--0------0------x---|
E---0----x--0-----x--0-----x--0------x---------x---------x----------------x---|

VERSE  #2:  (x2)
e---0----x--0-----x--0-----x--0------x--0------x--0------x--0------0------x-|
B---0----x--0--0--x--0-----x--0---0--x--0------x--0---0--x--0------0---0--x-|
G---8h9--x--9-----x--9h11--x--11-----x--11h13--x--13-----x--13h14--14-----x-|
D--------x--------x--------x---------x---------x---------x----------------x-|
A--------x--------x--------x---------x--0------x--0------x--0------0------x-|
E---0----x--0-----x--0-----x--0------x---------x---------x----------------x-|

PRE-CHORUS:
e---------x--0--0--x--------x--0--0--x--------x--0--0--x--0-|
B---------x--0--0--x--------x--0--0--x--------x--0--0--x--0-|
G------3--x--3--3--x-----6--x--6--6--x-----3--x--3--3--x--8-|
D------4--x--4--4--x-----7--x--7--7--x-----4--x--4--4--x--9-|
A---------x--4--4--x--------x--7--7--x--------x--4--4--x--9-|
E---2-----x--2--2--x--5-----x--5--5--x--2-----x--2--2--x--7-|

CHORUS:
e---------x--0--0--x--------x--0--0--x--------x--0--0--x--------x--0--0--x-|
B---------x--0--0--x--------x--0--0--x--------x--0--0--x--------x--0--0--x-|
G------9--x--9--9--x-----6--x--6--6--x-----6--x--6--6--x-----8--x--8--8--x-|
D------9--x--9--9--x-----7--x--7--7--x-----6--x--6--6--x-----9--x--9--9--x-|
A---7-----x--7--7--x--------x--7--7--x--4-----x--4--4--x--------x--9--9--x-|
E---------x--0--0--x--5-----x--5--5--x--------x--0--0--x--7-----x--7--7--x-|

e---------x--0--0--x--------x--0--0--x--------x--0--0--x--0-|
B---------x--0--0--x--------x--0--0--x--------x--0--0--x--0-|
G------9--x--9--9--x-----6--x--6--6--x-----6--x--6--6--x--8-|
D------9--x--9--9--x-----7--x--7--7--x-----6--x--6--6--x--9-|
A---7-----x--7--7--x--------x--7--7--x--4-----x--4--4--x--9-|
E---------x--0--0--x--5-----x--5--5--x--------x--0--0--x--7-|

BRIDGE:  (play this once before "we will live in the light of..." starts
e---------x--0--0--x-|
B---------x--0--0--x-|
G------9--x--9--9--x-|
D------9--x--9--9--x-|
A---------x--x--x--x-|
E---9-----x--9--9--x-|

e---------x--0--0--x--------x--0--0--x--------x--0--0--x--------x--0--0--x--|
B---------x--0--0--x--------x--0--0--x--------x--0--0--x--------x--0--0--x--|
G------9--x--9--9--x-----6--x--6--6--x-----6--x--6--6--x-----3--x--3--3--x--|
D------9--x--9--9--x-----7--x--7--7--x-----7--x--7--7--x-----4--x--4--4--x--|
A---------x--x--x--x--------x--7--7--x--------x--7--7--x--------x--4--4--x--|
E---9-----x--9--9--x--5-----x--5--5--x--5-----x--5--5--x--2-----x--2--2--x--|

e---------x--0--0--x--------x--0--0--x--------x--0--0-|
B---------x--0--0--x--------x--0--0--x--------x--0--0-|
G------3--x--3--3--x-----8--x--8--8--x-----8--x--8--8-|
D------4--x--4--4--x-----9--x--9--9--x-----9--x--9--9-|
A---------x--4--4--x--------x--9--9--x--------x--9--9-|
E---2-----x--2--2--x--7-----x--7--7--x--7-----x--7--7-|

CHORUS:
e---------x--0--0--x--------x--0--0--x--------x--0--0--x--------x--0--0--x-|
B---------x--0--0--x--------x--0--0--x--------x--0--0--x--------x--0--0--x-|
G------9--x--9--9--x-----6--x--6--6--x-----6--x--6--6--x-----8--x--8--8--x-|
D------9--x--9--9--x-----7--x--7--7--x-----6--x--6--6--x-----9--x--9--9--x-|
A---7-----x--7--7--x--------x--7--7--x--4-----x--4--4--x--------x--9--9--x-|
E---------x--0--0--x--5-----x--5--5--x--------x--0--0--x--7-----x--7--7--x-|

e---------x--0--0--x--------x--0--0--x--------x--0--0--x--------x--0--0--x-|
B---------x--0--0--x--------x--0--0--x--------x--0--0--x--------x--0--0--x-|
G------9--x--9--9--x-----6--x--6--6--x-----6--x--6--6--x-----8--x--8--8--x-|
D------9--x--9--9--x-----7--x--7--7--x-----6--x--6--6--x-----9--x--9--9--x-|
A---7-----x--7--7--x--------x--7--7--x--4-----x--4--4--x--------x--9--9--x-|
E---------x--0--0--x--5-----x--5--5--x--------x--0--0--x--7-----x--7--7--x-|

e---------x--0--0--x--------x--0--0--x--------x--0--0--x--------x--0--0--x-|
B---------x--0--0--x--------x--0--0--x--------x--0--0--x--------x--0--0--x-|
G------9--x--9--9--x-----6--x--6--6--x-----6--x--6--6--x-----8--x--8--8--x-|
D------9--x--9--9--x-----7--x--7--7--x-----6--x--6--6--x-----9--x--9--9--x-|
A---7-----x--7--7--x--------x--7--7--x--4-----x--4--4--x--------x--9--9--x-|
E---------x--0--0--x--5-----x--5--5--x--------x--0--0--x--7-----x--7--7--x-|

e---------x--0--0--x--------x--0--0--x--------x--0--0--x--------x--0--0--x-|
B---------x--0--0--x--------x--0--0--x--------x--0--0--x--------x--0--0--x-|
G------9--x--9--9--x-----6--x--6--6--x-----6--x--6--6--x-----8--x--8--8--x-|
D------9--x--9--9--x-----7--x--7--7--x-----6--x--6--6--x-----9--x--9--9--x-|
A---7-----x--7--7--x--------x--7--7--x--4-----x--4--4--x--------x--9--9--x-|
E---------x--0--0--x--5-----x--5--5--x--------x--0--0--x--7-----x--7--7--x-|

e---------x--0--0--0-|
B---------x--0--0--0-|
G------3--x--3--6--8-|
D------4--x--4--7--9-|
A---------x--4--7--9-|
E---2-----x--2--5--7-|

END WITH:
e------------------0-|
B---------------0----|
G------------1-------|
D---------2----------|
A------2-------------|
E---0----------------|
 
 
Jonas Brothers - Eternity :: indexed at Ultimate Guitar.
Eternity tabs @ 911Tabs

About the artist behind Eternity:

The Jonas Brothers are an American pop-rock band from Wyckoff, New Jersey made up of three brothers: Kevin, Joe, and Nick Jonas. They have released two albums - It's About Time in 2006, and Jonas Brothers in 2007, and will release A Little Bit Longer in 2008.

Indexed at Wikipedia.

Show us your talent, perform Eternity!

Here you can post a video or audio performance. Tell me more ...
Where can we find your performance? Tell me more ...
Your comment:
Please, log in to post your performance.