Artists by letter: A B C D E F G H I J K L M N O P Q R S T U V W X Y Z 0-9

 
Hurt
Johnny Cash - Hurt 

Fingerstyle version

 
Standard tuning 

No capo


Intro:

e|------0-------0-------2------0--| 
B|------1-------1-------3------1--| 
G|------2-------0-----2--------2--| 
D|----2-------2-----0--------2----| 
A|--0-------3--------------0------| 
E|--------------------------------|


Verse:
      C      D       Am         C      D       Am       C      D        Am
e|-0--3-0-0------2---0---0-|--------0------2---0---0--|-3-0-0------2----0---0-| 
B|--------1--3---3-1-----1-|----1---1--3---3-1-----1--|-----1--3---3--1-----1-| 
G|--------0----2---------2-|-0------0----2---------2--|-----0----2----------2-| 
D|------2----0---------2---|------2----0---------2----|---2----0----------2---| 
A|----3--------------0-----|----3--------------0------|-3---------------0-----| 
E|-------------------------|--------------------------|-----------------------| 
     C      D         Am          C      D       Am         C      D       Am 
e|-------0-------2--------0--|-0--3-0-0------2---0---0-|--------0------2---0---0--| 
B|---1---1---3---3--------1--|--------1--3---3-1-----1-|----1---1--3---3-1-----1--| 
G|-0-----0-0---2----0-2---2--|--------0----2---------2-|-0------0----2---------2--| 
D|-----2-----0----------2----|------2----0---------2---|------2----0---------2----| 
A|---3----------------0------|----3--------------0-----|----3--------------0------| 
E|---------------------------|-------------------------|--------------------------|
   C      D        Am        C       D        G 
e|-3-0-0------2----0---0-|-------0-------2----3--| 
B|-----1--3---3--1-----1-|---0---1---2---3----3--|
G|-----0----2----------2-|-0-----0-0---3-3-0--0--| 
D|---2----0----------2---|-----2-----0--------0--| 
A|-3---------------0-----|---3----------------2--| 
E|-----------------------|--------------------3--|
                                              DDDDDU

Chorus:
   Am      F        C         G         Am      F        C        G
e|-3-0-0---1--------0---------3-------|-3-0-0---1--------0--------3------| 
B|-1---1-1-1--------1-1-1h3-1-3-------|-1---1-1-1--1h3-1-1--1h3---3------| 
G|-2---2---2--------0---------0-------|-2---2---2--------0------0-0------| 
D|-2---2---3--------2---------0-------|-2---2---3--------2--------0------| 
A|-0---0---3--------3---------2-------|-0---0---3--------3--------2------| 
E|---------1------------------3-------|---------1-----------------3------| 
   D U U   DDDDU    D         DDUUDU    D U U   D        D        DDUDUDU

   Am       F       C       G        Am      F       C
e|-0--------1-------0---------3----|-3-0-0---1-------0-------| 
B|-1--------1-------1-1-1h3-1-3----|-1---1-1-1-1h3-1-1-1h3---| 
G|-2--------2-------0---------0----|-2---2---2-------0-----0-| 
D|-2--------3-------2---------0----|-2---2---3-------2-------| 
A|-0--------3-------3---------2----|-0---0---3-------3-------| 
E|----------1-----------------3----|---------1---------------|
   DDUUD    DDDDU    D         DDDD   D U U   D


Then you go back to the intro and repeat.


D - Downstroke

U - Upstroke
 
 
Johnny Cash - Hurt :: indexed at Ultimate Guitar.
Hurt tabs @ 911Tabs

About the artist behind Hurt:

Johnny Cash, born J. R. Cash, (February 26, 1932 - September 12, 2003) was a Grammy Award-winning American country singer-songwriter. Cash is widely considered to be one of the most influential American musicians of the 20th century.

Cash was known for his deep, distinctive voice, the boom-chick-a-boom or "freight train" sound of his Tennessee Three backing band, his demeanor, and his dark clothing, which earned him the nickname "The Man in Black." He traditionally started his concerts with the introduction "Hello, I'm Johnny Cash."

Much of Cash's music, especially that of his later career, echoed themes of sorrow, moral tribulation, and redemption. His signature songs include "I Walk the Line," "Folsom Prison Blues," "Ring of Fire," "Get Rhythm," "That Old Wheel" (a duet with Hank Williams Jr.), "Cocaine Blues," and "Man in Black". He also recorded several humorous songs, such as "One Piece at a Time," "The One on the Right Is on the Left," "Dirty Old Egg-Sucking Dog," "A Boy Named Sue," and a duet with June Carter called "Jackson"; and various railroad songs, such as "Rock Island Line" and "Orange Blossom Special".

He sold over 90 million albums in his nearly fifty-year career and came to occupy a "commanding position in music history".[1]

Indexed at Wikipedia.

Show us your talent, perform Hurt!

Here you can post a video or audio performance. Tell me more ...
Where can we find your performance? Tell me more ...
Your comment:
Please, log in to post your performance.