Artists by letter: A B C D E F G H I J K L M N O P Q R S T U V W X Y Z 0-9

 
Death Waltz Un Owen Was Her
-------------------------------------------------------------------------------
                             John Stump - Death Waltz/UN Owen Was Her
-------------------------------------------------------------------------------
Tabbed by: ADC2000/DT
E-mail: [email protected]
Notes: Each section here is one measure/bar, but just play it as fast as possible.
       This song is transcribed one octave down so you can actually play it and 
       not have notes on the 39th fret of the high e string. I simplified some
       chords so it sounds the same but you're not reaching your fingers over
       a span of 20 frets
Tuning: Standard EBGDAE

E|-----|-----|------------|--------|----------------|--------|----------------|
B|-----|-----|------------|--------|----------------|--------|----------------|
G|-----|-----|------------|--------|----------------|--------|----------------|
D|-----|-0---|--------0---|-1------|--------1-------|--------|--------3-------|
A|-4---|-0---|----0-------|-1------|--------1-------|-3------|--------3-------|
E|-----|-----|------------|--------|----------------|-13-----|----------------|

E|--------|-------------|------------------------|------------------------|
B|--------|-------------|------------------------|------------------------|
G|--------|-------8-----|-2------------------4---|-----4-------------3----|
D|-1------|-3-----8-----|------3----6----2-------|---------6----5---------|
A|-1------|-3-----6-----|------------------------|------------------------|
E|--------|-------------|------------------------|------------------------|

E|---------------------------------|---------------------------------|
B|-10--18--10--18--9---17--9---17--|-12--21--12--24--11--20--11--23--|
G|---------------------------------|---------------------------------|
D|---------------------------------|---------------------------------|
A|---------------------------------|---------------------------------|
E|---------------------------------|---------------------------------|

E|------------------------|------------------------|
B|------------------------|------------------------|
G|-2------------------4---|-----4-------------3----|
D|------3----6----2-------|---------6----5---------|
A|------------------------|------------------------|
E|------------------------|------------------------|

E|---------------------------------|---------------------------|
B|-10--22--10--22--9---21--9---17--|-12--24--12--17--16--------|
G|---------------------------------|---------------------------|
D|---------------------------------|---------------------------|
A|---------------------------------|---------------------------|
E|---------------------------------|---------------------------|

E|------------------------|------------------------|
B|-10--------9--------12--|-----12--9----8----11---|
G|-7----10---6----9-------|-9------------8---------|
D|------------------------|------------------------|
A|------------------------|------------------------|
E|------------------------|------------------------|

E|---------------------------------|---------------------------------|
B|-10--18--10--22--9---17--9---17--|-12--21--12--24--11--20--11--20--|
G|---------------------------------|---------------------------------|
D|---------------------------------|---------------------------------|
A|---------------------------------|---------------------------------|
E|---------------------------------|---------------------------------|

E|------------------------|------------------------|
B|-10--------9--------12--|-----12--9----8----11---|
G|-7----10---6----9-------|-9------------8---------|
D|------------------------|------------------------|
A|------------------------|------------------------|
E|------------------------|------------------------|

E|---------------------------------|---------------------------------|
B|-10--18--10--18--9---21--9---17--|-12--24--12--24--11--23--11--20--|
G|---------------------------------|---------------------------------|
D|---------------------------------|---------------------------------|
A|---------------------------------|---------------------------------|
E|---------------------------------|---------------------------------|


E|------------------------|------------------------|
B|-12---8----11---7---14--|-7---14--11---10---13---|
G|-9---------8------------|--------------10--------|
D|------------------------|------------------------|
A|------------------------|------------------------|
E|------------------------|------------------------|


E|---------------------------------|---------------------------------|
B|-12--20--12--20--11--23--11--23--|-14--26--14--26--13--22--13--25--|
G|---------------------------------|---------------------------------|
D|---------------------------------|---------------------------------|
A|---------------------------------|---------------------------------|
E|---------------------------------|---------------------------------|

E|------------------------|------------------------|
B|-10--------9--------12--|-----12--9----8----11---|
G|-7----10---6----9-------|-9------------8---------|
D|------------------------|------------------------|
A|------------------------|------------------------|
E|------------------------|------------------------|

E|---------------------------------|---------------------------------------|
B|-10--22--10--18--9---17--9---21--|-12--24--12--24--23--9--8--7-----------|
G|---------------------------------|------------------------------10-9--8--|
D|---------------------------------|---------------------------------------|
A|---------------------------------|---------------------------------------|
E|---------------------------------|---------------------------------------|

Main riff
E|---------------------------------|------------------------------|
B|---------10--------------10------|---------8---10--8-------12---|
G|-7---------------9-----------10--|-----10-----------------------|
D|---------------------------------|------------------------------|
A|---------------------------------|------------------------------|
E|---------------------------------|------------------------------|

E|-----------------------------------|-----------------------------|
B|-15--10--15--18--17--18-17-15--13--|-10--13--8---10--------------|
G|-----------------------------------|-----------------10----9--8--|
D|-----------------------------------|-----------------------------|
A|-----------------------------------|-----------------------------|
E|-----------------------------------|-----------------------------|

E|---------------------------------|-----------------------------------------|
B|---------10--------------10------|---------8---10--8-------------8-1012----|
G|-7---------------9-----------10--|-----10--------------4-5-7-9-10----------|
D|---------------------------------|-----------------------------------24----|
A|---------------------------------|-----------------------------------------|
E|---------------------------------|-----------------------------------------|

E|-----------------------------------|-------------|
B|-15--10--15--18--17--18-17-15--13--|-15----------|
G|-----------------------------------|-14----------|
D|-----------------------------------|-------------|
A|-----------------------------------|-------------|
E|-----------------------------------|-------------|

E|---------------------------------|------------------------------|
B|-15------22------17------22--18--|-----18--20--22--20------24---|
G|---------------------------------|------------------------------|
D|---------------------------------|------------------------------|
A|---------------------------------|------------------------------|
E|---------------------------------|------------------------------|

E|-----------------------------|----------------------------------|
B|-22--25--20--22--18----17-16-|--15------22------17------22--18--|
G|-----------------------------|----------------------------------|
D|-----------------------------|----------------------------------|
A|-----------------------------|----------------------------------|
E|-----------------------------|----------------------------------|

E|-------------|
B|-27----------|
G|-26----------|
D|-------------|
A|-------------|
E|-------------|

E|---------------------------------|------------------------|
B|-10----------10----------10------|-11-------11-------8----|
G|-----10--7-------10--7-------10--|-12-------8--------8----|
D|---------------------------------|------------------------|
A|---------------------------------|------------------------|
E|---------------------------------|------------------------|

E|---------------------------------|------------------------|
B|-10----------10----------10------|----------11-------11---|
G|-----10--7-------10--7-------10--|-9--------6--------6----|
D|---------------------------------|------------------------|
A|---------------------------------|------------------------|
E|---------------------------------|------------------------|

E|---------------------------------|------------------------|
B|-10----------10----------10------|-8--------8--------11---|
G|-----10--7-------10--7-------10--|------------------------|
D|---------------------------------|------------------------|
A|---------------------------------|------------------------|
E|---------------------------------|------------------------|


E|---------------------------------|------------------------|
B|-10----------10----------10------|-8--------8--------8----|
G|-----10--7-------10--7-------10--|-6--------6--------6----|
D|---------------------------------|------------------------|
A|---------------------------------|------------------------|
E|---------------------------------|------------------------|

E|---------------------------------|------------------------|
B|---------------------------------|-8----------------------|
G|-10--7---3---10--7---3---10--7---|-5-----------------9----|
D|---------------------------------|-5--------17-------5----|
A|---------------------------------|----------15------------|
E|---------------------------------|------------------------|

E|---------------------------------|------------------------|
B|---------------------------------|----------8--------8----|
G|-10--7---2---10--7---2---10--7---|-9--------3--------3----|
D|---------------------------------|-11-------11-------11---|
A|---------------------------------|------------------------|
E|---------------------------------|------------------------|


E|---------------------------------|------------------------|
B|-10----------10----------10------|------------------------|
G|-----10--7-------10--7-------10--|------------------------|
D|---------------------------------|-20-------20-------20---|
A|---------------------------------|-22-------22-------22---|
E|---------------------------------|-18-------18-------18---|

E|---------------------------------|---------------------------|
B|-10----------10----------10------|-------------------10------|
G|-----10--7-------10--7-------10--|-------------------9-------|
D|---------------------------------|-17------------------------|
A|---------------------------------|-15-------23---------------|
E|---------------------------------|----------19---------------|

E|------------------------|------------------------|---------------------------------|
B|-10--------9--------12--|-----12--9----8----11---|-10--10----------9---9-------12--|
G|-7----10---6----9-------|-9------------8---------|-7-------10--10--6-------9-------|
D|------------------------|------------------------|---------------------------------|
A|------------------------|------------------------|---------------------------------|
E|------------------------|------------------------|---------------------------------|


E|---------------------------------|------------------------|------------------------|
B|-12--12--9---9---8---8---11--11--|-10--------9--------12--|-----12--9----8----11---|
G|-9---------------8---------------|-7----10---6----9-------|-9------------8---------|
D|---------------------------------|------------------------|------------------------|
A|---------------------------------|------------------------|------------------------|
E|---------------------------------|------------------------|------------------------|


E|---------------------------------|---------------------------------|
B|-10--10----------9---9-------12--|-12--12--9---9---8---8---11--11--|
G|-7-------10--10--6-------9-------|-9---------------8---------------|
D|---------------------------------|---------------------------------|
A|---------------------------------|---------------------------------|
E|---------------------------------|---------------------------------|

E|------------------------|------------------------|
B|-10--------9--------12--|-----12--9----8----11---|
G|-7----10---6----9-------|-9------------8---------|
D|------------------------|------------------------|
A|------------------------|------------------------|
E|------------------------|------------------------|

E|---------------------------------|---------------------------------|
B|-10--10----------9---9-------12--|-12--12--9---9---8---8---11--11--|
G|-7-------10--10--6-------9-------|-9---------------8---------------|
D|---------------------------------|---------------------------------|
A|---------------------------------|---------------------------------|
E|---------------------------------|---------------------------------|

E|------------------------|------------------------|---------------------------------|
B|-10--------9--------12--|-----12--9----8----11---|-10--10----------11--11--7---12--|
G|-7----10---6----9-------|-9------------8---------|-7-------10--10--8---------------|
D|------------------------|------------------------|---------------------------------|
A|------------------------|------------------------|---------------------------------|
E|------------------------|------------------------|---------------------------------|

E|---------------------------------|---------------------------------|
B|-12--12--9---9---12--12--14--14--|---------10--------------10------|
G|-9-----------------------11------|-7---------------9-----------10--|
D|---------------------------------|---------------------------------|
A|---------------------------------|---------------------------------|
E|---------------------------------|---------------------------------|

E|------------------------------|-----------------------------------|
B|---------8---10--8-------12---|-15--10--17--18--17--18-17-15--13--|
G|-----10-----------------------|-------------------------------21--|
D|------------------------------|-----------------------------------|
A|------------------------------|-----------------------------------|
E|------------------------------|-----------------------------------|

E|-----------------------------|---------------------------------|
B|-10--13--8---10--------------|---------10--------------10------|
G|-----------------10----9--8--|-7---------------9-----------10--|
D|-----------------------------|---------------------------------|
A|-----------------------------|---------------------------------|
E|-----------------------------|---------------------------------|

E|-----------------------------------------|-----------------------------------|
B|---------8---10--8-------------8-1022----|-15--10--15--18--17--18-17-15--13--|
G|-----10--------------4-5-7-9-10----19----|-----------------------------------|
D|-----------------------------------21----|-----------------------------------|
A|-----------------------------------------|-----------------------------------|
E|-----------------------------------------|-----------------------------------|

E|-------------|---------------------------------|
B|-15----------|-15------22------17------22--18--|
G|-14----------|---------------------------------|
D|-------------|---------------------------------|
A|-------------|---------------------------------|
E|-------------|---------------------------------|

E|------------------------------|
B|-----18--20--22--20------24---|
G|------------------------------|
D|------------------------------|
A|------------------------------|
E|------------------------------|

E|-----------------------------|---------------------------------|
B|-22--25--20--22--18----17-16-|-15------22------17------22--18--|
G|-----------------------------|---------------------------------|
D|-----------------------------|---------------------------------|
A|-----------------------------|---------------------------------|
E|-----------------------------|---------------------------------|

E|-13----------------------------------------------|---------------------------------|
B|-27-22-18-22-18-22-18-22-18-22-18-22-18-22-18-22-|---------------------------------|
G|-------------------------------------------------|---------------------------------|
D|-------------------------------------------------|---------------------------------|
A|-------------------------------------------------|-0---------------1-----------2---|
E|-------------------------------------------------|---------1---------------2-------|

E|---------------------------------|---------------------------------|
B|---------------------------------|---------------------------------|
G|---------------------------------|---------------------------------|
D|---------------------------------|-----------------0-----------1---|
A|-----2-----------3---------------|-4-------0---------------1-------|
E|---------3---------------4-------|---------------------------------|

E|---------------------------------|---------------------------------|
B|---------------------------------|---------------------------------|
G|---------------------------------|-2---------------3-----------4---|
D|-----1-----------2---------------|-0---------------1-------4---2---|
A|---------2---------------3-------|---------1---------------2-------|
E|---------------------------------|---------13----------------------|

E|---------------------------------|---------------------------------|
B|---------------------------------|---------------------------------|
G|-----4-----------5---------------|-6-------2-------7-------3---8---|
D|-----2---5-------3-------6-------|-4-------0-------5-------1---6---|
A|---------3---------------4-------|---------------------------------|
E|---------------------------------|---------------------------------|

E|---------------------------------|---------------------|---------------------|
B|---------------------------------|-----------11--------|---------------------|
G|-----8---4-------9-------5-------|-----------11--------|-16--------13--------|
D|-----6---2-------7-------3-------|-19------------------|-14--------15--------|
A|---------------------------------|-17------------------|---------------------|
E|---------------------------------|---------------------|---------------------|

E|---------------------|---------------------|---------------------|
B|-14--------8---------|-16--------17--------|---------------------|
G|-14--------15--------|-16--------14--------|-22--------23--------|
D|---------------------|---------------------|-20--------21--------|
A|---------------------|---------------------|---------------------|
E|---------------------|---------------------|---------------------|

E|---------------------|---------------------|---------------------|
B|-16--------14--------|-15--------23--------|-24--------21--------|
G|-24--------25--------|-26--------23--------|-24--------29--------|
D|-22------------------|---------------------|---------------------|
A|---------------------|---------------------|---------------------|
E|---------------------|---------------------|---------------------|

E|---------------------------------|------------------------------|
B|-15------22------17------22--18--|-----18--20--22--20------24---|
G|---------------------------------|------------------------------|
D|---------------------------------|------------------------------|
A|---------------------------------|------------------------------|
E|---------------------------------|------------------------------|

E|---------------------------------|
B|-15------22------17------22--18--|
G|---------------------------------|
D|---------------------------------|
A|---------------------------------|
E|---------------------------------|

E|-------------|---------------------------------|
B|-27----------|-15------22------17------22--18--|
G|-26----------|---------------------------------|
D|-------------|---------------------------------|
A|-------------|---------------------------------|
E|-------------|---------------------------------|

E|------------------------------|
B|-----18--20--22--20------24---|
G|------------------------------|
D|------------------------------|
A|------------------------------|
E|------------------------------|

E|-----------------------------|---------------------------------|
B|-22--25--20--22--18----17-16-|-15------22------17------22--18--|
G|-----------------------------|---------------------------------|
D|-----------------------------|---------------------------------|
A|-----------------------------|---------------------------------|
E|-----------------------------|---------------------------------|

E|-------------|---------------------------------|------------------------------|
B|-22----------|-16------23------18------23--19--|-----19--21--23--21------25---|
G|-------------|---------------------------------|------------------------------|
D|-------------|---------------------------------|------------------------------|
A|-------------|---------------------------------|------------------------------|
E|-------------|---------------------------------|------------------------------|

E|---------------------------------|
B|-16------23------18------23--19--|
G|---------------------------------|
D|---------------------------------|
A|---------------------------------|
E|---------------------------------|

E|-------------|---------------------------------|
B|-28----------|-16------23------18------23--19--|
G|-------------|---------------------------------|
D|-------------|---------------------------------|
A|-------------|---------------------------------|
E|-------------|---------------------------------|

E|------------------------------|
B|-----19--21--23--21------25---|
G|------------------------------|
D|------------------------------|
A|------------------------------|
E|------------------------------|

E|-----------------------------|---------------------------------|
B|-23--26--21--23--19----18-17-|-16------23------18------23--19--|
G|-----------------------------|---------------------------------|
D|-----------------------------|---------------------------------|
A|-----------------------------|---------------------------------|
E|-----------------------------|---------------------------------|

E|-------------26--25--26-25---------|-------------|---------------------------------|
B|-28--23--28----------------28--26--|-28----------|-11--7-------11--7-------11--7---|
G|-----------------------------------|-27----------|---------8-----------8-----------|
D|-----------------------------------|-------------|---------------------------------|
A|-----------------------------------|-------------|---------------------------------|
E|-----------------------------------|-------------|---------------------------------|

E|------------------------|---------------------------------|------------------------|
B|-------------------12---|-11--7-------11--7-------11--7---|-9----------------------|
G|-13----------------9----|---------8-----------8-----------|-7----------------------|
D|-14-------21------------|---------------------------------|----------21-------21---|
A|------------------------|---------------------------------|----------17-------20---|
E|------------------------|---------------------------------|------------------------|

E|---------------------------------|------------------------|---------------------------------|
B|-11--7-------11--7-------11--7---|------------------------|-11--7-------11--7-------11--7---|
G|---------8-----------8-----------|-16-------16-------13---|---------8-----------8-----------|
D|---------------------------------|-14-------14-------14---|---------------------------------|
A|---------------------------------|------------------------|---------------------------------|
E|---------------------------------|------------------------|---------------------------------|

E|------------------------|---------------------------------|------------------------|
B|-12----------------9----|-7-----------7-----------7-------|-9--------9-------------|
G|-10-------10-------10---|-----8---4-------8---4-------8---|-6-----------------10---|
D|----------12------------|---------------------------------|-6--------6--------11---|
A|------------------------|---------------------------------|------------------------|
E|------------------------|---------------------------------|------------------------|

E|---------------------------------|------------------------|---------------------------------|
B|-7-----------7-----------7-------|------------------------|-11--7-------11--7-------11--7---|
G|-----8---3-------8---3-------8---|-10---------------------|---------8-----------8-----------|
D|---------------------------------|-6--------9--------18---|---------------------------------|
A|---------------------------------|----------17-------17---|---------------------------------|
E|---------------------------------|------------------------|---------------------------------|

E|------------------------|---------------------------------|---------------------------|
B|-12---------------------|-11--7-------11--7-------11--7---|-8-------------------------|
G|-13-------9-------------|---------8-----------8-----------|-5--------10---------------|
D|-14----------------21---|---------------------------------|-14-------11-------19------|
A|-------------------14---|---------------------------------|-------------------15------|
E|------------------------|---------------------------------|---------------------------|

E|--------|---------------------|------------------------|
B|--------|-15---22---17---22---|-18---20--22--20---24---|
G|--------|---------------------|------------------------|
D|--------|---------------------|------------------------|
A|--------|---------------------|------------------------|
E|--------|---------------------|------------------------|

E|--------------------|--------|
B|-15-18-22-27--------|--------|
G|--------------------|--------|
D|--------------------|--------|
A|--------------------|--------|
E|--------------------|--------|


 
 
John Stump - Death Waltz Un Owen Was Her :: indexed at Ultimate Guitar.
Death Waltz Un Owen Was Her tabs @ 911Tabs
People who played John Stump - Death Waltz Un Owen Was Her also played these songs by John Stump:
Death Waltz Un Owen Was Her Tab

Quick tip, so you can enjoy Death Waltz Un Owen Was Her even more:

If you spend just 10 seconds to register, you will be able to comment on all the chords and tabs and rate them. You will as well be able to comment on videos of your fellow guitarists and give them ratings from 1 to 5 ... And - of course - you can share your own videos with them and see what they think of you. :)
Click here to join us!

Show us your talent, perform Death Waltz Un Owen Was Her!

Here you can post a video or audio performance. Tell me more ...
Where can we find your performance? Tell me more ...
Your comment:
Please, log in to post your performance.