Artists by letter: A B C D E F G H I J K L M N O P Q R S T U V W X Y Z 0-9

 
Black Leaf
[Intro]
e|---------------------------------------------------------------------------|
B|--------5---------------------5------------7-------------------------------|
G|------------6---------0~----------6----------------------------------------|
D|-----6--------6---6---------6-------6---6----6-----------------------------|
A|---4------------4---------4-----------4------------------------------------|
E|----------4---------4-----------4----------4-------------------------------|

e|---------------------------------------------------------------------------|
B|--------5---------------------5--------------------------------------------|
G|------------6---------0~----------6----------------------------------------|
D|-----6--------6---6---------6-------6---6----------------------------------|
A|---4------------4---------4-----------4------------------------------------|
E|----------4---------4-----------4----------4-------------------------------|

[Verse]
e|----------------|-----------------------------------------------------------------------|
B|--------5-------|----(0)------0---------0--------0-----------0-------------5------------|
G|------------6---|---------6--------6---------6----------6---------------6----------0~---|
D|-----6--------6-|(x4)-------7--------7---------7----------7---------6-----6-----6-------|
A|---4------------|-----0--------------------0---------7------------4-----------4---------|
E|----------4-----|----------------0-----------------------------------4-----------4------|

e|----------------|-----------------------------------------------------------------------|
B|--------5-------|----(0)------0---------0--------0-----------0--------5-----------------|
G|------------6---|---------6--------6---------6----------6--------------------6----------|
D|-----6--------6-|(x4)-------7--------7---------7----------7---------6----------6--------|
A|---4------------|-----0--------------------0---------7------------4---------------------|
E|----------4-----|----------------0----------------------------------------4-------------|

e|-------------------------------0-------------------------------------------|
B|---0-------0--------------3------------------------------------------------|
G|-------3-------3--------2-----------0h1------------------------------------|
D|---------4-------4----0----------0---h2-2-2-0------------------------------|
A|-------------4--------------0----------------------------------------------|
E|-----2---------------------------------------------------------------------|

[Pre-Chorus]
e|---------------------------------------------------------------------------|
B|--------5---------------------5--------------------------------------------|
G|------------6---------0~----------6----------------------------------------|
D|-----6--------6---6---------6-------6---6----------------------------------|
A|---4------------4---------4-----------4------------------------------------|
E|----------4---------4-----------4----------4-------------------------------|

[Verse]
e|----------------|-----------------------------------------------------------------------|
B|--------5-------|----(0)------0---------0--------0-----------0-------------5------------|
G|------------6---|---------6--------6---------6----------6---------------6----------0~---|
D|-----6--------6-|(x4)-------7--------7---------7----------7---------6-----6-----6-------|
A|---4------------|-----0--------------------0---------7------------4-----------4---------|
E|----------4-----|----------------0-----------------------------------4-----------4------|

e|----------------|-----------------------------------------------------------------------|
B|--------5-------|----(0)------0---------0--------0-----------0--------5-----------------|
G|------------6---|---------6--------6---------6----------6--------------------6----------|
D|-----6--------6-|(x4)-------7--------7---------7----------7---------6----------6--------|
A|---4------------|-----0--------------------0---------7------------4---------------------|
E|----------4-----|----------------0----------------------------------------4-------------|

e|-------------------------------0-------------------------------------------|
B|---0-------0--------------3------------------------------------------------|
G|-------3-------3--------2-----------0h1------------------------------------|
D|---------4-------4----0----------0---h2-2-2-0------------------------------|
A|-------------4--------------0----------------------------------------------|
E|-----2---------------------------------------------------------------------|

[Pre-Chorus]
e|---------------------------------------------------------------------------|
B|--------5---------------------5--------------------------------------------|
G|------------6---------0~----------6----------------------------------------|
D|-----6--------6---6---------6-------6---6----------------------------------|
A|---4------------4---------4-----------4------------------------------------|
E|----------4---------4-----------4----------4-------------------------------|

[Bridge]
e|-------------------|-----------------------|--------------------------0---------0-------------|
B|---1-------1-------|-------0-------0-------|-------0----------0-----------0---3----3----------|
G|-------0-------0---|-----------2-------2---|-----------1----------1-------------------1---1-0-|
D|---------2-------2-|(x2)---------1-------1-|(x2)---------2----------2-------------------------|
A|-----3-------------|---------2-------------|---------------2------------2-----2---------2-----|
E|-------------3-----|-----------------2-----|---------0----------0-----------0-----0-----------|

e|-------------------|-----------------------|--------------------------------------------------|
B|---1-------1-------|-------0-------0-------|-------0-------0---0-------0-------0---------0----|
G|-------0-------0---|-----------2-------2---|-----------1-----------1-------1---------1--------|
D|---------2-------2-|(x2)---------1-------1-|(x2)---------2-----------2-------2---------2------|
A|-----3-------------|---------2-------------|-----------------2-----------2---------2----------|
E|-------------3-----|-----------------2-----|---------0-----------0---------------0------------|

e|-------------------------------0--------------------------------------------------------------|
B|---0-------0--------------3-------------------------------0-------0-------0-------------------|
G|-------3-------3--------2-----------0h1-----------------------1-------1-------1---------------|
D|---------4-------4----0----------0---h2-2-2-2-2-2-2-2-2-2---2---2---2---2---2---2-0-----------|
A|-------------4--------------0-----------------------------------------------------------------|
E|-----2----------------------------------------------------------------------------------------|

[Instrumental]
e|---------------------------------------------------------------------------|
B|--------5---------------------5------------7-------------------------------|
G|------------6---------0~----------6----------------------------------------|
D|-----6--------6---6---------6-------6---6----6-----------------------------|
A|---4------------4---------4-----------4------------------------------------|
E|----------4---------4-----------4----------4-------------------------------|

e|---------------------------------------------------------------------------|
B|--------5---------------------5--------------------------------------------|
G|------------6---------0~----------6----------------------------------------|
D|-----6--------6---6---------6-------6---6----------------------------------|
A|---4------------4---------4-----------4------------------------------------|
E|----------4---------4-----------4----------4-------------------------------|

[Verse]
e|----------------|-----------------------------------------------------------------------|
B|--------5-------|----(0)------0---------0--------0-----------0-------------5------------|
G|------------6---|---------6--------6---------6----------6---------------6----------0~---|
D|-----6--------6-|(x4)-------7--------7---------7----------7---------6-----6-----6-------|
A|---4------------|-----0--------------------0---------7------------4-----------4---------|
E|----------4-----|----------------0-----------------------------------4-----------4------|

e|----------------|-----------------------------------------------------------------------|
B|--------5-------|----(0)------0---------0--------0-----------0--------5-----------------|
G|------------6---|---------6--------6---------6----------6--------------------6----------|
D|-----6--------6-|(x4)-------7--------7---------7----------7---------6----------6--------|
A|---4------------|-----0--------------------0---------7------------4---------------------|
E|----------4-----|----------------0----------------------------------------4-------------|

e|-------------------------------0-------------------------------------------|
B|---0-------0--------------3-------------------------5----------------------|
G|-------3-------3--------2-----------0h1-----------------6------------------|
D|---------4-------4----0----------0---h2-2-2-0-----6-------6----------------|
A|-------------4--------------0-------------------4--------------------------|
E|-----2------------------------------------------------4--------------------|

e|-------------------------------0--------------------------------------------------------------|
B|---0-------0--------------3-------------------------------0-------0-------0-------------------|
G|-------3-------3--------2-----------0h1-----------------------1-------1-------1---------------|
D|---------4-------4----0----------0---h2-2-2-2-2-2-2-2-2-2---2---2---2---2---2---2-0-----------|
A|-------------4--------------0-----------------------------------------------------------------|
E|-----2----------------------------------------------------------------------------------------|

[Outro]
e|---------------------------------------------------------------------------|
B|--------5---------------------5------------7-------------------------------|
G|------------6---------0~----------6----------------------------------------|
D|-----6--------6---6---------6-------6---6----6-----------------------------|
A|---4------------4---------4-----------4------------------------------------|
E|----------4---------4-----------4----------4-------------------------------|

e|---------------------------------------------------------------------------|
B|--------5---------------------5------------7~------------------------------|
G|------------6---------0~----------6----------------------------------------|
D|-----6--------6---6---------6-------6---6----------------------------------|
A|---4------------4---------4-----------4------------------------------------|
E|----------4---------4-----------4----------4~------------------------------|


************************************

| ~  Vibrato
| h  Hammer-on

************************************
 
 
John Paul White - Black Leaf :: indexed at Ultimate Guitar.
Black Leaf tabs @ 911Tabs

Quick tip, so you can enjoy Black Leaf even more:

You might want to transpose the song if it is too high or too low for you to sing. Just click the desired option while playing a song and all the chords will automatically be transponded into a new key.

Show us your talent, perform Black Leaf!

Here you can post a video or audio performance. Tell me more ...
Where can we find your performance? Tell me more ...
Your comment:
Please, log in to post your performance.