Artists by letter: A B C D E F G H I J K L M N O P Q R S T U V W X Y Z 0-9

 
Heart So Heavy
John Mayer - Heart So Heavy

tabbed by asehauDLM (2016)

Based on this version of the song:
https://www.youtube.com/watch?v=0aa_VXb8JBM

Tuning (low to high): E,B,E,F#,B,e   [Same Tuning as Something's Missing & In Your Atmosphere (L.A. Song)]

x = Muted note
h = Hammer on
p = Pull off
^ = Harmonic
/ & \ = Slide


Intro
|-12^----------------------0-----0---------|
|-12^--5h7-------0h2-------0-----0---------|
|-12^------7/9-------------0-----0---------|   [2x]; also played after 1st Chorus
|-0------------------4/6---6p4---4---------|
|-0------------------------5-----5---------|
|-0------------------------0-----0---------|

Verse
|-0----0----0----0------0---|         
|-0----0----0----0------0---|
|-0----0----0----0------9---|  [3x]
|-6p4--6p4--6p4--6p4----7---|
|-5----5----5----5------0---|
|-0----0----0----0----------|

Last Bar of Verse
|-0----0----0----0----|                     
|-0----0----0----0----|
|-0----0----0----0----|   then straight
|-6p4--6p4--6p4--6p4--|   into Pre-Chorus   
|-5----5----5----5----|            
|-0----0----0----0----|            

Pre-Chorus
|--0---0---0---|
|--4---0---0---|
|--5---5---2---|
|--7---4---0---|
|--0---x---2---|
|------4-------|

Pre-Chorus (alternative, 2nd time)
|--7---0---0---|
|--7---0---0---|
|--7---5---2---|
|--7---4---0---|
|--x---x---2---|
|--7---4-------|

Chorus
|--7---0---0---0----7-------0--0-0--0-----0---0--|
|--7---0---0---0----7-------10\5/10\5-----0---0--|
|--7---5---10--4----7-------12\5/12\5-----10--0--|
|--7---4---9---2----7----0----------------9---2--|
|--x---5---x---x----x----0----------------x---x--|
|--7---0---9---2----7----0----------------9---2--|

Bridge
|--0---0---|
|--0---0---|
|--5---7---|   [4x]
|--4---6---|
|--5---7---|
|--4---6---|

Outro
|--7--7---------0--0---|
|--7--7---------10\5---|
|--7--7h9-------12\5---|   [6x]
|--7--7-----0----------|
|--x--x-----0----------|
|--7--7-----0----------|
 
 
John Mayer - Heart So Heavy :: indexed at Ultimate Guitar.
Heart So Heavy tabs @ 911Tabs

About the artist behind Heart So Heavy:

John Clayton Mayer (surname pronunciation: /ˈmeɪ.jɜr/[1]) (born October 16, 1977) is an American singer-songwriter. Originally from Connecticut, he attended Berklee College of Music before moving to Atlanta, Georgia, in 1998, where he refined his skills and gained a following. His first two studio albums, Room for Squares and Heavier Things, did well commercially, achieving multi-platinum status. In 2003, he won a Best Male Pop Vocal Performance Grammy for "Your Body Is a Wonderland".

Mayer began his career performing mainly acoustic rock and pop, but gradually began a transition towards the blues genre in 2005 by collaborating with renowned blues artists such as B. B. King and Eric Clapton, and by forming the John Mayer Trio. The blues influence can be heard on his album Continuum, released in September 2006. At the 49th Annual Grammy Awards in 2007 Mayer won Best Pop Vocal Album for Continuum and Best Male Pop Vocal Performance for "Waiting on the World to Change". Mayer's career pursuits have extended to stand-up comedy, design, and writing; he has written pieces for magazines, most notably for Esquire. He is also involved in philanthropic activities through his "Back to You" fund and his concern over global warming.

Indexed at Wikipedia.

Show us your talent, perform Heart So Heavy!

Here you can post a video or audio performance. Tell me more ...
Where can we find your performance? Tell me more ...
Your comment:
Please, log in to post your performance.