Artists by letter: A B C D E F G H I J K L M N O P Q R S T U V W X Y Z 0-9

 
How
---------------------------------------------------------------------------
                       How? " John Lennon
---------------------------------------------------------------------------
Tabbed by: maguri
Tuning: Standard


John Lennon

How? (1971)
(Lennon)

From: "Imagine"

---------------------------------------------------------------------------
CHORDS

          E-A-D-G-B-e
Bmadd11   x-2-4-4-3-0

---------------------------------------------------------------------------

  LINK 1                             LINK 2
    D7sus4      D                       D7sus4      D
  1 + 2 + 3 + 4 +  1 + 2 + 3 + 4 +    1 + 2 + 3 + 4 +  1 + 2 + 3 + 4 +
e|--3-3---3-3---2-|----------------| |--8-8---8-8---5-|----------------|
B|--1-1---1-1---3-|----------------| |--8-8---8-8---7-|----------------|
G|--2-2---2-2---2-|--------2-------| |--7-7---7-7---7-|----------------|
D|--0-0---0-0-----|----4-------4---| |--0-0---0-0---0-|----------------|
A|--------------5-|--5---5---5---5-| |----------------|----------------|
E|----------------|----------------| |----------------|----------------|


   G G/F# G/F       Em Ebaug G/D
   1 + 2 + 3 + 4 +  1 + 2 + 3 + 4 +  
 e|----------------|----------------|
 B|----0---3-------|----0---3-------|
 G|0---0---0-------|0---0---0-------|
 D|0---0---0-------|2---1---0-------|
 A|----------------|----------------|
 E|3---2---1-------|0---------------|
Oh no            Oh no


CODA
                      Ebaug   Em/C#
   G G/F# G/F       Em     G/D      Cmaj7
   1 + 2 + 3 + 4 +  1 + 2 + 3 + 4 +       
 e|----------------|------------3---|7-------3-------|
 B|----0---3-------|----0---3---5---|8-------3-------|
 G|0---0---0-------|0---0---0---4---|9----3h4--------|
 D|0---0---0-------|2---1---0-------|----------------|
 A|----------------|------------4---|----------------|
 E|3---2---1-------|0---------------|8----3----------|
Oh no            Oh no
                             (ritardando)

---------------------------------------------------------------------------

VERSE
G                                                             D7sus4  D7
How can I go forward when I don't know which way I'm facing?
G                                                            D7sus4  D7
How can I go forward when I don't know which way to turn?
C                                           G
How can I go forward into something I'm not sure of?
   G  G/F#  G/F
Oh no, 
   Em  Ebaug  G/D
Oh no


VERSE
G                                                            D7sus4  D7
How can I have feeling when I don't know if it's a feeling?
G                                                             D7sus4  D7
How can I feel something if I just don't know how to feel?
C                                                           G
How can I have feelings when my feelings have always been denied?
   G  G/F#  G/F
Oh no, 
   Em  Ebaug  G/D
Oh no


MIDDLE 8
         Bm          Bmadd11
You know life can be long
        Bm
And you got to be so strong
        Am          D
And the world is so tough
Am           D
 Sometimes I feel I've had enough


VERSE
G                                                             D7sus4  D7
How can I give love when I don't know what it is I'm giving?
G                                                             D7sus4  D7
How can I give love when I just don't know how to give?
C                                                        G
How can I give love when love is something I ain't never had?
   G  G/F#  G/F
Oh no, 
   Em  Ebaug  G/D
Oh no


MIDDLE 8
         Bm          Bmadd11
You know life can be long
        Bm
You got to be so strong
        Am           D
And the world she is tough
Am           D
 Sometimes I feel I've had enough


VERSE (+ coda)
G                                                             D7sus4  D7
How can we go forward when we don't know which way we're facing?
G                                                             D7sus4  D7
How can we go forward when we don't know which way to turn?
C                                              G
How can we go forward into something we're not sure of?
   G  G/F#  G/F
Oh no, 
   Em  Ebaug  G/D  Em/C#  Cmaj7   G
Oh no


 
 
John Lennon - How :: indexed at Ultimate Guitar.
How tabs @ 911Tabs

About the artist behind How:

John Winston Ono Lennon, MBE (born John Winston Lennon; 9 October 1940–8 December 1980) was an English rock musician, singer, songwriter, artist, and peace activist who gained worldwide fame as one of the founding members of The Beatles. As a member of the group, Lennon was one of the lead vocalists and co-wrote the majority of the band's songs with bassist Paul McCartney.

In his solo career, Lennon wrote and recorded songs such as "Give Peace a Chance" and "Imagine". Lennon revealed his rebellious nature and wit on television, in films such as A Hard Day's Night, in books such as In His Own Write, and in press conferences and interviews. He was controversial through his work as a peace activist, artist, and author.

Lennon had two sons: Julian Lennon, with his first wife Cynthia Lennon, and Sean Ono Lennon, with his second wife, avant-garde artist Yoko Ono. After a self-imposed retirement from 1976 to 1980, Lennon reemerged with a comeback album, but was murdered one month later in New York City on 8 December 1980. In 2002, respondents to a BBC poll on the 100 Greatest Britons voted Lennon into eighth place. In 2004, Rolling Stone magazine ranked Lennon number 38 on its list of "The Immortals: The Fifty Greatest Artists of All Time" and ranked The Beatles at number one.

Indexed at Wikipedia.

Show us your talent, perform How!

Here you can post a video or audio performance. Tell me more ...
Where can we find your performance? Tell me more ...
Your comment:
Please, log in to post your performance.